You Give Love A Bad

Printer Friendly, PDF & Email

Interpret

Bon Jovi

Akkorde

[Intro]
e|--------------------------------|--------------------------------|
b|--------------------------------|--------------------------------|
g|10b12-10v-8-10b12r10-8----------|10b12-10v-8-10b12r10p8----------|
d|-----------------------10v-8-10-|-----------------------10v------|
a|--------------------------------|--------------------------------|
e|--------------------------------|--------------------------------|


[Verse A Riff]
e|----------------|---------------|----------------|-----------------|
b|----------------|---------------|----------------|8\/8\/8\/8\------|
g|----------------|---------------|----------------|8\/8\/8\/8\------|
d|--------1-1-----|--------1-1----|--------1-1-----|8\/8\/8\/8\------|
a|3---1-3-----3-1-|3---1-3-----3v-|3---1-3-----3-1-|-----------------|
e|--3-------------|--3------------|--3-------------|-----------------|


[Pre Chorus]
e|1---------|\1/---------------|-------------|-----------------------|
b|1---------|\1/---------------|----8-8---8-8|\8/\8/\8/\8/8----------|
g|2---------|\2/---------------|----8-8---8-8|\8/\8/\8/\8/8----------|
d|3---------|\3/---------------|----8-8---8-8|\8/\8/\8/\8/8----------|
a|3---------|\3/---------------|-------------|-----------------------|
e|1---------|\1/---------------|-------------|-----------------------|

e|1---------|----------|1----------1|1-1-1-1-------|
b|3---------|----------|1----------1|1-1-1-1-------|
g|3---------|----------|2----------2|2-2-2-2-------|
d|3---------|----------|3----------3|3-3-3-3-------|
a|1---------|----------|3----------3|3-3-3-3-------|
e|1---------|----------|1----------1|1-1-1-1-------|

[Chorus]
e|-----------------|---------------|---------------|
b|-----------------|---------------|---------------|
d|5----------------|---------------|--------------5|
g|5------6------6-6|8--8---10------|6--8-------1--5|x2
a|3------6------6-6|8--8---10------|6--8-----1----3|
e|-------4------4-4|6--6---8-------|4--6---3-------|

[Solo]
e|----------------|-------------------|----------------------|
b|\8/-------------|-------------------|----------------------|
g|--------------8v|5/7-7/8-8/10-10/12-|12/15-15/17-17~~~~~~~~|
d|--------------8v|-------------------|----------------------|
a|----------------|3/5-5/6-6/8--8/10--|10/13-13/15-15~~~~~~~~|
e|----------------|-------------------|----------------------|

e|---------------------------------------------|8-----10--------|
b|8h11p8h11p8h11p811p8h11p8h11p811p8h11p8h11b13|11b13-13b15-----|
g|---------------------------------------------|----------------|
D|---------------------------------------------|----------------|
a|---------------------------------------------|----------------|
e|---------------------------------------------|----------------|

Musik Gruppe