Why can't this be love - Van Halen

Printer Friendly, PDF & Email

Noten Stimmung

D#

Akkorde

Intro

---------|-------------------------|-----------------------------|
---------|-------------------------|-----------------------------|
---------|-------------------------|-----------------------------|
---------|-------------------------|-----------------------------|
-2h3p2h3-|-(3)-2-3-2-3---2---2---3-|-3-3p2p(0)-3-2-3-2-3---5---3-|
---------|-------------3-----------|-----------------------------|

Intro & Refrain

|| C | Am7 | F G || -> C
Strophe
|| D5 | Asus2 | F G | E5 ||
| B5 (E G) | F | Ebsus2 | F |
Solo Teil 1
  Gitarre 1
|--------------------------------------|--------------------------------------|
|--------------------------------------|--------------------------15----------|
|-14-----16-----17-----17-----16-------|-14----16-----17-----17------16----17-|
|----15-----17-----19-----19-----17-15-|---15----17-----19-----19-------17----|
|--------------------------------------|--------------------------------------|
|--------------------------------------|--------------------------------------|
|                                                                             |
| Gitarre 2                                                                   |
|--------------------------------------|--------------------------------------|
|--------------------------------------|--------------------------------------|
|--2-----4------5------5------4--------|--2-----4------5------5------4--------|
|----3-----5------7------7------5--3---|----3-----5------7------7------5--3---|
|--------------------------------------|--------------------------------------|
|--------------------------------------|--------------------------------------|

  Gitarre 1                                             [ Durchgang 2 nicht|
|--------------------------------------|-----------------------------------|
|--------------------------------------|-15---13-12------------------------|
|-14-----16-----17-----17-----16-------|------------14---------------------|
|----15-----17-----19-----19-----17-15-|------------------12---------------|
|--------------------------------------|-----------------------15-14-12----|
|--------------------------------------|-----------------------------------|
|                                                                          |
| Gitarre 2                                                                |
|--------------------------------------|-----------------------------------|
|--------------------------------------|-----------------------------------|
|--2-----4------5------5------4--------|-7----5--4-------------------------|
|----3-----5------7------7------5--3---|------------7----------------------|
|--------------------------------------|-------------------5----3-2-0------|
|--------------------------------------|-----------------------------------|


Gitarre 1 Solo Teil 2
|------------------13--15-|----------------------13-------|
|---13--15-13-15---14--16-|---11--13-11----------14----15-|
|---13--15-13-15----------|---11--13-11-13p11h13-------15-|
|-------------------------|-------------------------------|
|-------------------------|-------------------------------|
|-------------------------|-------------------------------|
 
|----------------------------------------20----|
|---13--15p13---------15p==13h15s==18-18-20-20-|
|---13--15p13h15p==13-15p==13h15s==18-18-20-20-|
|----------------------------------------------|
|----------------------------------------------|
|----------------------------------------------|

|------------------------------------------------------------|
|-(20)S10--11----13p11---13b15==(13)r-13b15---13b15==(13)r---|
|-(20)S10--11-11-13p11---------------------------------------|
|------------------------------------------------------------|
|------------------------------------------------------------|
|------------------------------------------------------------|

|------------------13---x-15--|-(15)\--------------------------|
|-13h15p===13h15---14---x-16--|-(16)\-11-13------11------------|
|-13h15p===13-----------------|-------11-13p11------13-11-10/--|
|-----------------------------|--------------------------------|
|-----------------------------|--------------------------------|
|-----------------------------|--------------------------------|


Bass im Soloteil 1
Part 1         1. - 3.         4.               
G||-------------------------||----------|
D||-------------------------||----------|
A||-------------------2-----||----------|
E||-1-1--3-3--5-5--5----3-1-||-55555555-|


Bass und Gitarre 2 Soloteil 2
G||---------------|-------------------|| 
D||---------------|-------------------|| 3 x
A||-----------4-6-|---------------4---||
E||--4-6-4-6------|--2-4-2-4\2/4----6-||

G||---------------|--------------------|
D||---------------|--------------------|
A||-----------4-6-|---------(1)--------|
E||--4-6-4-6------|-2-4-2----6--4-2-1--|

 

Musik Gruppe