Wheels

Printer Friendly, PDF & Email

Interpret

Foo Fighters

Akkorde

Intro:
| D A | F#m E |
e|-----------------------------------------------|
B|-----------------------------------------------|
G|--------------6-6-6-6-(7)----------------------|
D|--------7-----7-7-7-7-(7)-7-7--7-6-6-6-7-6-----|
A|-5--7\9---9-7------------------------------9-7-|
E|-----------------------------------------------| x2

Strophe: (clean)
| D A | F#m E |
e|---------------------------------------------|
B|---------------------------------------------|
G|--------------6-6-6-6------------------------|
D|--------7-----7-7-7-7---7--7-----6-7-6-------|
A|-5--7\9---9-7---------9------7-7-------(9)-7-|
E|---------------------------------------------|

Pre Chorus (Guitar 2)
e|-x-5-5--x-5-5-|-x-5-5--x-4-4--|
B|-x-5-5--x-5-5-|-x-5-5--x-5-5--|
G|-x-2-2--x-2-2-|-x-2-2--x-4-4--|
D|--------------|---------------|
A|--------------|---------------|
E|--------------|---------------| x4

Refrain
| D A | F#m E |

e|-------------------------|--------------------|
B|-7--7--7-----------------|--------------------|
G|-7--7--7--0--------------|----2-rep-----1-rep-|
D|-7--7--7--0-------7------|-0--4-rep--0--2-rep-|
A|-5--5--5--0---4/7---7\5--|-0--4-rep--0--2-rep-|
E|-------------------------|-0--2-rep--0--0-rep-|

Pre Refrain
   D  D    A   F#m F#m    E
e|-----------|-----------------|
B|-3--3----2-|------------0----|
G|-2--2----2-|------------1----|
D|-0--0----2-|--4---4-----2----|
A|-0--0----0-|--4---4-----2----|
E|-----------|--2---2-----0----|

Solo:

e|------------------------------------|
B|------------------------------------|
G|--------------(7)-------------------|
D|---7------7------7-7h9p6--6-7-6-----|
A|-5---5-7----7-9-----------------9-7-|
E|------------------------------------| x2

e|--------------------------------------|------------------------------------|
B|--------------------------------------|------------------------------------|
G|-7--7-7-7h9-6----(7)------------------|--------------(7)-------------------|
D|--------------9-7---7-7h9-6-6-7-6-4---|---7------7------7-7h9p6--6-7-6-----|
A|------------------------------------7-|-5---5-7----7-9-----------------9-7-|
E|--------------------------------------|------------------------------------|

 

Musik Gruppe