Were not gonna take it

Printer Friendly, PDF & Email

Interpret

Twisted Sister

Noten Stimmung

D#

Akkorde

Intro :
|| D  C#5 | Hm7  A ||

Strophe
| D  | A | D | G |
| D |  A  | D | A ||

Refrain
| D  | A | D | G |
| D |  A  | D  C#5 | Hm7  A |

Strophe 2 zweiter Durchgang wie Refrain

Bridge
|| C#5 | Hm7  A ||
| D | D# | E | A | A |

Solo

|-------------|----------------|----------|-------------|
|-------------|----------------|----7---7-|--8-8-8-7----|
|-----7---7---|--9------9------|------9---|----------9--|
|-------7-----|------7---------|----------|-------------|
|-------------|----------------|----------|-------------|
|-------------|----------------|----------|-------------|
                                                        
|----------------|--------------|---------------|--------------------------|
|----7-----------|----7---------|---------------|-10b10b10b10b10b10b10b10b-|
|--------9---7---|-9----------7-|-7----7--------|--------------------------|
|----------------|--------------|---------------|--------------------------|
|----------------|--------------|---------------|--------------------------|
|----------------|--------------|---------------|--------------------------|

|-------------|--------------|----------|-------------|
|-------------|--------------|-7--7---7-|-8-----------|
|--7--7---7---|--9-----------|------9---|---7---------|
|-------7-----|-----7--------|----------|-------------|
|-------------|--------------|----------|-------------|
|-------------|--------------|----------|-------------|
                                                        
|----------------|--------------|---------------|----------------|
|-7--7-----------|----7---------|---------------|----------------|
|--------9---7---|-9----------7-|-7--7--7--7----|-(7)------------|
|----------------|--------------|---------------|----------------|
|----------------|--------------|---------------|----------------|
|----------------|--------------|---------------|----------------|

Musik Gruppe