Use somebody

Printer Friendly, PDF & Email

Interpret

Kings Of Leon

Akkorde

 

Intro
1. Gitarre

E|---------------------|------------------------|-----------------|
B|---------------------|------------------------|-----------------|
G|-9-----9-----9---9---|-9-----9----9---9---9---|-2-----2-----2---|
D|-10----10----10--10--|-10----10---10--10--10--|-3-----3-----3---|
A|-10----10----10--10--|-10----10---10--10--10--|-3-----3-----3---|
E|-8-----8-----8---8---|-0-----0----0---0---0---|-1-----1-----1---|

2. Gitarre

E|-0---0---0---0---0---0---0---0---|-7---7---7---8---8---8---10--10--|-10--10--10--8---8---8-----------|
B|-5---5---5---5---5---5---5---5---|---------------------------------|-------------------------10--10--|
G|-5---5---5---5---5---5---5---5---|---------------------------------|---------------------------------|
D|---------------------------------|---------------------------------|---------------------------------|
A|---------------------------------|---------------------------------|---------------------------------|
E|---------------------------------|---------------------------------|---------------------------------|

Strophe
|| C | C/D | F | F ||
|| A | C | F | F ||

2. Gitarre

E|-3--3--3--3--3--3--3--3--3--3--3--3--3--3--3--3--|-3--3--3--3--3--3--3--3--3--3--3--3--3--3--3--3--|
B|-5--5--0--0--0--0--5--5--0--0--0--0--5--5--0--0--|-5--5--0--0--0--0--5--5--0--0--0--0--5--5--0--0--|
G|-------------------------------------------------|-------------------------------------------------|
D|-------------------------------------------------|-------------------------------------------------|
A|-------------------------------------------------|-------------------------------------------------|
E|-------------------------------------------------|-------------------------------------------------|

Refrain
2. Gitarre

E|-0---0---0---0---0---0---0---0---|-7---7---7---8---8---8---10--10--|-7---7---7---8---8---8-----------|
B|-5---5---5---5---5---5---5---5---|---------------------------------|-------------------------10--10--|
G|-5---5---5---5---5---5---5---5---|---------------------------------|---------------------------------|
D|---------------------------------|---------------------------------|---------------------------------|
A|---------------------------------|---------------------------------|---------------------------------|
E|---------------------------------|---------------------------------|---------------------------------|

E|---------------------------------|---------------------------------|-7---7---7---8---8---8---10--10--|
B|-10--10--10--8---8---8---10--10--|---------------------------------|---------------------------------|
G|---------------------------------|-7---7---7---5---5---5---7---7---|---------------------------------|
D|---------------------------------|---------------------------------|---------------------------------|
A|---------------------------------|---------------------------------|---------------------------------|
E|---------------------------------|---------------------------------|---------------------------------|

E|-10--10--10--8---8---8-----------|---------------------------------|------------------------------|
B|-------------------------10--10--|-10--10--10--8---8---8---10--10--|------------------------------|
G|---------------------------------|---------------------------------|-7---7---7---5---5---5---7----|
D|---------------------------------|---------------------------------|------------------------------|
A|---------------------------------|---------------------------------|------------------------------|
E|---------------------------------|---------------------------------|------------------------------|

Break
| D | F# | D | F# |

Solo

Musik Gruppe