Turn up the Radio - Autograph

Printer Friendly, PDF & Email

Noten Stimmung

D#

Akkorde

Into

|--------------------------|
|--------------------------|
|------------------------4-|
|------------------------4-|
|--4-----------------------|
|--2--2--2--2--2--2--2-----|

Strophe
| F# | H | E | F# | (nur Keyboard)

|--------------------------|--------------------------||
|--------------------------|--------------------------||
|--------------------------|--------------------------||
|--------------------------|-----------4-----2--------||
|--4--4--4--4--4--4--4--4--|--4--4--4-----2--------4--||
|--2--2--2--2--2--2--2--2--|--2--2--------------5-----||

Refrain
| D# C# | C# G# | H F# | D#sus4 D# |

Solo (B Moll Skala)
| G# | G#sus4 | F# | G# |

E|----------------------------9--8-----8---|-11-8--9--9--8-----9--8-----8--------------------|
B|---------------------9--7---------9------|----------------9--------9-----9--7--------------|
G|---------------6--5----------------------|-------------------------------------8--6--5-----|
D|--------5--4-----------------------------|----------------------------------------------6--|
A|-4--3------------------------------------|-------------------------------------------------|
E|-----------------------------------------|-------------------------------------------------|

E|---------------------------|-------------------------------------Sl----B-|
B|-------------------1---3---|--------------------------------Sl--9/11--11-|
G|---------------2-----------|-4/(5)~~~---------------------4/-10----------|
D|-4---------3---------------|---------------------------------------------|
A|---------------------------|---------------------------------------------|
E|---------------------------|---------------------------------------------|

E|------11--10--9---8-------------------|-8/(9)-8--11/(13)11----16-18-16-----16-18-19--|
B|-11------------------9------9/(11)-9--|--------------------18----------18------------|
G|------------------------8-------------|----------------------------------------------|
D|--------------------------------------|----------------------------------------------|
A|--------------------------------------|----------------------------------------------|
E|--------------------------------------|----------------------------------------------|

E|-20-------18-16-------14-11----------------------|---------------------------------------|
B|----------------------------13----14-13-------11-|-14-13-13------------------------------|
G|----20-18-------17-15----------11----------------|---------13-1010-----------------------|
D|----------------------------------------13-11----|-----------------11-10-10-11-10--------|
A|-------------------------------------------------|----------------------------------11---|
E|-------------------------------------------------|---------------------------------------|

E|-------------------------------------------------------------------------|
B|-------------------------------------------------------------------------|
G|-------------------------------------------------------------------------|
D|-13-6-10-15-6-10---13-6-10-15-6-10--13-6-10-15-6-10---13-6-10-15-6-10----|  6 10 13 15
A|-------------------------------------------------------------------------|
E|-------------------------------------------------------------------------|

E|-------------------------------------------------------------------------|
B|-------------------------------------------------------------------------|  
G|-13-6-10-15-6-10---13-6-10-15-6-10--13-6-10-15-6-10---13-6-10-15-6-10----| 6 10 13 15
D|-------------------------------------------------------------------------|
A|-------------------------------------------------------------------------|
E|-------------------------------------------------------------------------|

E|-------------------------------------------------------------------------|  
B|-14-7-11-16-7-11--14-7-11-16-7-11--14-7-11-16-7-11--14-7-11-16-7-11------| 7 11 14 16
G|-------------------------------------------------------------------------|
D|-------------------------------------------------------------------------|
A|-------------------------------------------------------------------------|
E|-------------------------------------------------------------------------|

E|-16-8--11-18-8--11-16-8--11-18-8--11---------------------------------|  8 11 16 18
B|-------------------------------------16-9--13-18-9--13-16-9--13-18-9-|              9 13 16 18
G|---------------------------------------------------------------------|
D|---------------------------------------------------------------------|
A|---------------------------------------------------------------------|
E|---------------------------------------------------------------------|

E|-16/-------------------|--------------------------|--------------------------|-------------|
B|------16/---16/--------|-----------13/------------|-14-----------------------|-------------|
G|------------------15/--|-13/--------------13-15/--|----15/-----------17/--13-|-17/sl down--|
D|-----------------------|------13/-----------------|--------------------------|-------------|
A|-----------------------|--------------------------|--------------------------|-------------|
E|-----------------------|--------------------------|--------------------------|-------------|
 

Musik Gruppe