Sweet Child O' Mine

DruckversionDruckversion

Noten Stimmung: 

D#

Akkorde: 

Intro
D#||--------------13----12------||--------------13----12------||
A#||-----13---------------------||-----13---------------------||
F#||--------12-10----12----12---||--------12-10----12----12---||
C#||--10------------------------||--12------------------------||
G#||----------------------------||----------------------------||
D#||----------------------------||----------------------------||
                                 ----------            
                                 | 1. + 2.
D#||--------------13----12------||--------------13----12------||
A#||-----13---------------------||-----13---------------------||
F#||--10----12-10----12----12---||--------12-10----12----12---||
C#||----------------------------||--10------------------------||
G#||----------------------------||----------------------------||
D#||----------------------------||----------------------------||
                                                                          
D#|--10----------10----12------|--13----12----10------------|-------|-------|
A#|--------13------------------|--------------------13------|--13L--|--13---|
F#|-----12----12----12----12---|-----12----12----12----12---|--12L--|--12---|
C#|----------------------------|----------------------------|-------|-------|
G#|----------------------------|----------------------------|-------|-------|
D#|----------------------------|----------------------------|-------|-------|

Strophe

|| C | Badd9 | F | F ||

Refrain

​D#|----------------------------|--------------10----8-------|
A#|-----12-------13----12------|-----11---------------------|
F#|--------12-------12----12---|--------10-8-----10----10---|
C#|--9--------12---------------|--8-------------------------|
G#|----------------------------|----------------------------|
D#|----------------------------|----------------------------|
                                                          
D#|--------------13----12------|--------------13----12------|
A#|-----13---------------------|-----13---------------------|
F#|--------12-10----12----12---|--------12-10----12----12---|
C#|--10------------------------|--10------------------------|
G#|----------------------------|----------------------------|
D#|----------------------------|----------------------------|

Solo 1   || Dm | B | Am | G ||
----------|----------------|------------------|---------------|
----------|----------------|------------------|---------------|
------12--|-10---9------12-|-10---9--------12-|-10---------12-|
---x------|----------------|------------------|-----12--------|
----------|----------------|------------------|---------------|
----------|----------------|------------------|---------------|
                                                  
--------------|------------------|------------------------------|
--------------|---------Bd-------|---Bd----13-13/(15)-----------|
--10-------12-|-10----12/(14)-10-|-12/(14)----------------Slide-|
-----12-------|------------------|----------------------12-14---|
--------------|------------------|------------------------------|
--------------|------------------|------------------------------|

Solo 2   || Dm | F | G | B C ||

Solo 1 + 
Solo 2
----------|----------------|------------------|---------------|
----------|----------------|-----------13--13-|-11--/15----15-|
------12--|-10---9------12-|-10---9-12--------|---------------|
---x------|----------------|------------------|---------------|
----------|----------------|------------------|---------------|
----------|----------------|------------------|---------------|

-------------------|-----------------------|-------------------------|----15-|
-15\13-13\11--(10)-|-11--------------------|----------13-13--(15)b17-|-------|
-------------------|-----10----(12)b14--10-|-(12)b14-----------------|-------|
-------------------|--------10-------------|-------------------------|-------|
-------------------|-----------------------|-------------------------|-------|
-------------------|-----------------------|-------------------------|-------|


Musik Gruppe: 

Interpret: 

Guns N' Roses