Sunday Bloody Sunday - U2

Printer Friendly, PDF & Email

Noten Stimmung

D#

Akkorde

e------2-------2-------0-------0----
B----3---3---3---3---3---3---3---3--
G--4-------2-------0-------0-------0
D-----------------------------------
A-----------------------------------
E-----------------------------------

Strophe & Refrain
|| Hm | D | G6 | G6 ||

Bridge
| D | Em | D | Em |
 
e------------------------------|
b--------------(5)-----(7)-----|
g----(7)---(5)-------------(7)-|
d-(7)--------------------------|
a------------------------------|
e------------------------------|


[Guitar Solo]

e--12p10-10-10-12-12-12p10-10-10-------------------------------------------|
b---0-----0--0--0--0--0-----0--0--12-12-12p10-10-10--12-12-12p10-10-10-----|
g----------------------------------0--0--0-----0--0---0--0--0-----0--0-----|
d--------------------------------------------------------------------------|
a--------------------------------------------------------------------------|
e--------------------------------------------------------------------------|

e-12-12-12p10-10-10-12-12-12p10-10-10--------------------------------------|
b--0--0--0-----0--0--0--0--0-----0--0--12-12-12p10-10-10-12-12-12p10-10-10-|
g---------------------------------------0--0--0-----0--0--0--0--0-----0--0-|
d--------------------------------------------------------------------------|
a--------------------------------------------------------------------------|
e--------------------------------------------------------------------------|

e--0--0--0---0--0---0-0-0---0-0-0---0-0-0--0--0-0---0-0-0---0--0--0-0-0----|
b-10-10-10---8--8---7-7-7---5-5-5---3-3-3-[5]-3-3---2-2-2--[3]-2--0-0-0----|
g--------------------------------------------------------------------------|
d--------------------------------------------------------------------------|
a--------------------------------------------------------------------------|
e--------------------------------------------------------------------------|

e-0-0-0-0--0-0--0-0-0--0-0---0--0--0---0--0--0---0--0--0---0---0---0---0---|
b-0-3-3-3--5-5--7-7-7--8-8--10-10-10--12-12-12--15-15-15--14--10--12--12---|
g--------------------------------------------------------------------------|
d--------------------------------------------------------------------------|
a--------------------------------------------------------------------------|
e--------------------------------------------------------------------------|

e---0----------------------------------------------------------------------|
b-(12)---------------------------------------------------------------------|
g--------------------------------------------------------------------------|
d--------------------------------------------------------------------------|
a--------------------------------------------------------------------------|
e--------------------------------------------------------------------------|

Liedtext

Sunday bloody Sunday

I can't believe the news today

oh I can't close my eyes and make it go away

how long how long must we sing this song

how long how long 'cause tonight we can be as one tonight

 

Broken bottles under children's feet

bodies strewn across the dead end street

but I won't heed the battle call

it puts my back up puts my back up against the wall

 

Sunday bloody Sunday Sunday bloody Sunday

Sunday bloody Sunday Sunday bloody Sunday

 

And the battle's just begun
there's many lost but tell me who has won
the trench is dug within our hearts
and mothers children brothers sisters torn apart

 

Sunday bloody Sunday Sunday bloody Sunday

How long how long must we sing this song how long how long
'cause tonight we can be as one tonight tonight

Sunday bloody Sunday Sunday bloody Sunday

Wipe the tears from your eyes wipe your tears away
oh wipe your tears away oh wipe your tears away

Sunday bloody Sunday Sunday bloody Sunday
Sunday bloody Sunday Sunday bloody Sunday
Sunday bloody Sunday Sunday bloody Sunday

 

And it's true we are immune when fact is fiction and TV reality
and today the millions cry we eat and drink while tomorrow they die
the real battle just begun to claim the victory Jesus won on

 

Sunday bloody Sunday Sunday bloody Sunday

 

Musik Gruppe