Song 2

DruckversionDruckversion

Akkorde: 

Intro & Strophe
E---------------------------------------------------------
B---------------------------------------------------------
G--10-10--8-8--13-13--15--17-17-17------------------------
D--10-10--8-8--13-13--15--17-17-17------------------------
A--8-8----6-6--11-11--13--15-15-15------------------------
D---------------------------------------------------------
oder
E-------------------------------------------------------
B--------------9--9--11--13-13-13-----------------------
G--10-10--8-8--8--8--10--12-12-12-----------------------
D--10-10--8-8--6--6---8--10-10-10-----------------------
A--8-8----6-6-------------------------------------------
D-------------------------------------------------------

 

Refrain

3 x Intro / Strophen Schema

| F | G# | C# | C# |

 

Guitar 2

E--8-------------------------------------------------------
B--6-------------------------------------------------------

Musik Gruppe: 

Interpret: 

Blur