In The Shadows

Printer Friendly, PDF & Email

Interpret

The Rasmus

Akkorde

Intro Guitar 2

Guitar 2
    1 + 2 + 3 + 4 + 
e|------------------|
B|----7---7---7---7-|
G|------------------|
D|------------------|
A|------------------|
E|------------------|

Guitar 1
e||-------------------|-------------------|-------------------|-------------||
B||-------------------|-------------------|-------------------|-------------||
G||-------------------|-------------------|-------------------|-------------||
D||-------------------|-------------------|-------alt(7)------|-------------||
A||-5---5---5-7-5-4---|-------------------|-2---4---5-5-5-4---|-------------||
E||-----------------5-|-2---2---2-2-0-2-5-|-----------------5-|-2-2-4-4-5-5-||


Strophe
Guitar 1 (Muted)
e||-------------------|-----------------||
B||-------------------|-----------------||
G||-7-----------------|-----------------|| (X7)
D||-7----x16----------|-4----x16--------||
A||-5-----------------|-4---------------||
E||-------------------|-2---------------||

                        1 +                                                                         
e||-------------------|---------------------||
B||-------------------|---------------------||
G||-7-----------------|---------------------||
D||-7---x16-----------|---4--3--2-----------||
A||-5-----------------|---4--3--2-----------||
E||[5]----------------|---2--1--0-----------||



Refrain
| D | F# | H | F# |
| D | F# | H | F#  F E |




Musik Gruppe