Shadow of the Day - Linkin Park

Printer Friendly, PDF & Email

Akkorde

Intro

E|-2--2--2--2--4--2---|
H|--0--0--2--2--2--0--|
G|--------------------|
D|--------------------|
A|--------------------|
E|--------------------|

Strophe
|| G#m | F# | E | E F# ||

Refrain
| H | C#m | G#m | E F# |
| H | C#m | G#m | E F# |
| H | F# | G#m | E F# |
| H | C#m | G#m | E F# |

 
Solo
|-------|---------------------7----|
|---5---|-7---7---7---7---7--------|
|-4---4-|---4---4---4---4---4------|
|-------|--------------------------|
|-------|--------------------------|
|-------|--------------------------| x3

|--------------------------------------|
|-5---5----5---4---4---4---4---4---4---|
|---4---4----4---4---4---4---4---4---4-|
|--------------------------------------|
|--------------------------------------|
|--------------------------------------|

2 Solo comes in (3:24-4:00) :Guitar 1 is played behind the one
|------------------------------19-------|
|--17--19--19--19--19--19--17------17---|
|16--16--16--16--16--16--16--16--16--16-|  do one time then
|---------------------------------------|
|---------------------------------------|
|---------------------------------------|

|------------------------19-------|
|19--19--19--19--19--17------17---|
|--16--16--16--16--16--16--16--16-| repeat till the end of the song
|---------------------------------|
|---------------------------------|
|---------------------------------|

Musik Gruppe