Sex On Fire

Printer Friendly, PDF & Email

Interpret

Kings Of Leon

Akkorde

Intro/verse

D|-----------------------(x4)-|-----------------------(x4)-|
A|---16---14---14---14--------|---12---11---11---11--------|
E|-0----0----0----0----0------|-9----9----9----9----9------|

Chorus:

Gtr.1
e|--4-4-4-4-0---0---0---0---0--11--11--11--11-5-5-5-5------|
B|-5-5-5-5---12--12--12--12--12--12--12--12--7-7-7-7-------|
G|---------------------------------------------------------|


Gtr.2
e|---------------------------------------------------------|
B|---------------------------------------------------------|
G|-9-9-9-9-9-9-9-13--9-9-9-9-9-9-9-13----------------------|
D|-9-9-9-9-9-9-9-13--9-9-9-9-9-9-9-13----------------------|
A|-7-7-7-7-7-7-7-11--7-7-7-7-7-7-7-11----------------------|
E|---------------------------------------------------------|


Gtr.1
e|----11-----11--------11--------------11-----11--------0--|
B|----14b16--14b16-----14--------------14b16--14b16-----9--|
G|---------------------------------------------------------|
D|---------------------------------------------------------|
A|---------------------------------------------------------|
E|---------------------------------------------------------|

Gtr.2
e|---------------------------------------------------------|
B|---------------------------------------------------------|
G|---------------------------------------------------------|
D|-11-11-11-11-11-11-11-11--7-7-7-7-7-7-7-7----------------|
A|-11-11-11-11-11-11-11-11--7-7-7-7-7-7-7-7----------------|
E|-9--9--9--9--9--9--9--9---5-5-5-5-5-5-5-5----------------|

Musik Gruppe