Semi Charmed Life

Printer Friendly, PDF & Email

Interpret

Third Eye Blind

Akkorde

Intro
G D Dsus4 Cadd9

e|-3-3-3-3-3-3-----2-2-2-2-2-3-----3-3-3-3-----3-3-3-3---3-3-|
B|-3-3-3-3-3-3-----3-3-3-3-3-3-----3-3-3-3-----3-3-3-3---3-3-|
G|-0-0-0-0-0-0-----2-2-2-2-2-2-----0-0-0-0-----0-0-0-0---0-0-|
D|-0-0-0-0-0-0-----0-0-0-0-0-0-----0-0-0-0-----0-0-0-0---0-0-|
A|-2-2-2-2-2-2---------------------3-3-3-3-----3-3-3-3---3-3-|
E|-3-3-3-3-3-3-----------------------------------------------|

||---------------------------|--------------------------|--------------------------|
||-------12----12-10----13>--|-------13----13-12-10-----|-12-------12-10-------10>-|
||-12-------12-------12------|-12-------12----------12>-|-------12-------12-9------|
||---------------------------|--------------------------|--------------------------|
||---------------------------|--------------------------|--------------------------|
||---------------------------|--------------------------|--------------------------|

1.
|----------------------------||
|--8-----8--8--8--8h-10------||
|-----9----------------------||
|----------------------------||
|----------------------------||
|----------------------------||

2.
|----------------------------------------------------|
|--10----8-----------1h-3h-1--0-----1h-0-------------|
|--------------9s----------------------------0-------|
|----------------------------------------------------|
|----------------------------------------------------|
|----------------------------------------------------|

Pre Chorus
|| D C9 || 3x --> D

Pre Chorus 2
|| D C9 || 3x --> G und nochmal

G Pickung -> C9

Good Bye part

e|--------------------------|
B|--------------------------|
G|-----0-------0------2~----|
D|---2-------0------2-------| x4
A|-3-------2------0---------|
E|--------------------------|

Musik Gruppe