Runaway

Printer Friendly, PDF & Email

Interpret

Bon Jovi

Noten Stimmung

D#

Akkorde

Intro : | (E) A | (E) G |

Strophe 
| E A | E G | G E | E F G A | 
| A | % | G | % | E | F G | A | % |

Flagio : 
| Em G (12) | Am (5)| D (7) | C |

Refrain :

| A | % | G | % | C | E G | A | % |

| G | E |


Solo
e|----------------|----------------|------------------|
b|5-----5-----5---|--5-----5---5---|5---------------8-|
g|7b9---7b9---7b9-|--7b9---7b9-7b9-|7b9---------7b9---|
d|----------------|----------------|------------------|
a|----------------|----------------|------------------|
e|----------------|----------------|------------------|

e|------------------|--------------------|-----------------|
b|------------------|--5-8---------------|-----------------|
g|7b9r7-5---5-7-5-7b|9-----7b9r7-5-7p5---|-----------------|
d|--------7---------|------------------7-|5-/4-------------|
a|------------------|--------------------|-----5-5-----3-5-|
e|------------------|--------------------|-----------------|

e|----------------|8-8---------10----|----------------------------|
b|----------------|----10\3/10----10-|12b13-r12b13-12b13r12-10----|
g|--------5-5-----|------------------|-------------------------12-|
d|------------7/--|------------------|----------------------------|
a|3-3-------------|------------------|----------------------------|
e|----5\----------|------------------|----------------------------|

e|10----10------------|15------------15----15----15----15----|
b|10h12----12--10-----|15b17---------15b17-15b17-15b17-15b17-|
g|----------------12--|--------------------------------------|
d|--------------------|--------------------------------------|
a|--------------------|--------------------------------------|
e|--------------------|--------------------------------------|

e|15----------------------|---------------------|
b|15b17r15-13-------------|----5------8------13-|
g|------------14\2----5---|7b9---\2/9---9/14----|
d|-----------------/7---7-|---------------------|
a|------------------------|---------------------|
e|------------------------|---------------------|

e|------------------------|------------17-----------------|
b|------15-------17----17-|20-17-20b22----20b22---20b22---|
g|14/16----16/19----19----|-------------------------------|
d|------------------------|-------------------------------|
a|------------------------|-------------------------------|
e|------------------------|-------------------------------|

e|------17-17-19-20-19-17----|
b|20b22-------------------20-|
g|---------------------------|
d|---------------------------|
a|---------------------------|
e|---------------------------|

e|17h19p17----17h19h20p19p17----17---------------|
b|---------20----------------20---20p17----20p17-|
g|--------------------------------------17-------|
d|-----------------------------------------------|
a|-----------------------------------------------|
e|-----------------------------------------------|

e|---------------------------------------------|--------|
b|---------------------------------------------|--------|
g|19p17-19b21-r19p17-------17------------------|--------|
d|-------------------19p17-----19p17h19p17-----|--------|
a|-----------------------------------------19--|19------|
e|---------------------------------------------|--------|

Musik Gruppe