Ring of Fire

Printer Friendly, PDF & Email

Interpret

H- Blochx

Akkorde

Intro / Main Riff
G |----------------------------|--------------------------o||
D |--5-----5--0--3--5-----5----|-----5-----0--3-----5-----o||
A |----------------------------|---------------------------||
D |--5-----5--0--3--5-----5----|-----5-----0--3-----5------||


Riff Guitar 2
E|----------------------------|---------------------|-------|-------|
B|----------------------------|---------------------|-------|-------|
G|--7-----7--7-----7-----7----|--9-----5-----7L-----|--7L---|--7----|
D|--x-----x--x-----x-----x----|--x-----x-----x------|-------|-------|
A|--5-----5--5-----5-----5----|--7-----3-----5L-----|--5L---|--5----|
D|----------------------------|---------------------|-------|-------|

E|----------------------------|---------------------|-------|-------|
B|----------------------------|---------------------|-------|-------|
G|--4-----4--4-----4-----4----|--5-----2-----4L-----|--4L---|--4----|
D|--x-----x--x-----x-----x----|--x-----2-----x------|-------|-------|
A|--2-----2--2-----2-----2----|--3-----0-----2L-----|--2L---|--2----|
D|----------------------------|---------------------|-------|-------|

Refrain
| D | D | C | G |
| D | D | C | G |
| G H | D | C | G |
| C | G | C | G |

Rap -> G




Musik Gruppe