Rebel Yell

Printer Friendly, PDF & Email

Interpret

Billy Idol

Akkorde

Intro

G||-----2-4------2-4--||
D||---4--------4------||
A||-2--------2--------||
E||-------------------||

  G         F#        E
|---------|-------7-|-----------|
|-5-----5-|-3-----9-|-2-------5-|
|-3-------|-2-------|-0---------|

 

|| G | F# | Em| Em ||
| D A  Hm | Hm | %% |

e|-----------19-|
h|-----------19-|
G|--------------|
D|--------------|
A|-2~--2/14-----|
E|--------------|

 

Strophe & Refrain
e|------------|---------|---------|-------------------|
h|------------|---------|---------|-------------------|
G|-11----11-%-|-7---7-%-|-7---7-%-|-7---7-%-----------|
D|-9--9--9--%-|-7-7-7-%-|-5-5-5-%-|-5-5-5-%-0---------|
A|------------|---------|---------|-----------5-5-----|
E|------------|---------|---------|---------------5-5-|

 

| Hm | 3% | Dmaj | 3% |
| G  | G   D A |

Musik Gruppe