Radio GaGa

Printer Friendly, PDF & Email

Interpret

Queen

Noten Stimmung

D#

Akkorde

Strophe

1. | E | % | F#m7 | % | A | % | F#m7 A E |

2. | E | % | F#m7 | % | A | % | F#m7; A E; F#m7 E |

Pre Chorus

| E | Em6/ G | A | F#/A7 |

Refrain 

| E/H | % | H7sus2 | H7 |  A E; F#m7 E |

| E7 | A E | A E | A E |

| E7 | A E | A E |

| D | D | A | H |
| C#m | % | Hsus4 H | Hsus2 H | E |

 

Outro nach Strophe Teil 1 (8 Takte)
|---7------7------9----11-12---11--9--7------------------------|
|-5------5------5----------------------------------------------|
|--------------------------------------------------------------|
|--------------------------------------------------------------|
|--------------------------------------------------------------|
|--------------------------------------------------------------|


Nach Refrain (6 Takte)
|---7------7------9----11-12---14--16----14-16-17---19---14-12-|
|-5------5------5----------------------------------------------|
|--------------------------------------------------------------|
|--------------------------------------------------------------|
|--------------------------------------------------------------|
|--------------------------------------------------------------|

Musik Gruppe

Noten Datei