Radar love - Golden Earring

Printer Friendly, PDF & Email

Noten Stimmung

E Seite auf D

Akkorde

e|---------------------------------------|
h|---------------------------------------|
G|-------------------------0-------------|
D|---0-2------0--------0-2---0-----------|
A|-2--------2---0----2-------------0-0---|
D|-------------------------------5---0---|
 
   Fill 1           Fill 2        Fill 3
e|----------------|-7---10---8--|------------------------|
h|----------------|-8---10---7--|-11/12------------------|
G|-3/4--2-0-2-2-0-|---9----7----|-11/12--14-12-14-14-12--|
D|-4/5--2-0-2-2-0-|-------------|--------14-12-14-14-12--|
A|----------------|-------------|------------------------|
D|----------------|-------------|------------------------|

 
Bridge
| D | D A | A D Em | Em |
      1 4   1 3 4
| D | D | A G/A | A |
| H A/H | H |

 
Refrain
| C G | G D | D Em | E G |
  1 4+  1 4   1 4+   1 4
| C G | G D | D | D |
  1 4+  1 4

 
 
D|----------|----------|----------|----------|
A|-----1-0--|-----0----|-----1-0--|-----0----|
D|-2-5------|-2-5---2--|-2-5------|-2-5---2--|
 
D|-----0----|----------|-----0----|----------|
A|---2---4--|---2-4----|---2---4--|---2-4----|
D|-5--------|-5-----5--|-5--------|-5-----5--|
 
D|-------------|---------|-------------|----------|
A|-----1-0-1-2-|-0-1-2---|-----1-0-1-2-|---0-2----|
D|-2-5---------|------0--|-2-5---------|-5-----0--|

Musik Gruppe