Punk Rock Song

DruckversionDruckversion

Akkorde: 

Intro :

Strophe

| C# | E | H | F# |
| C# | E | H | G# |
| A | E | H | H E H |

Refrain
| C# | A | E | H |
| C# | A | E | G# |
| A | E | G# | G# |
| C# | A | E | G# |

Git. Solo über C# nach 3.Strophe -» 3 X Intro

solo:



|------------------------------------------------------------------------------|
|---14-14----14-14----14----14--14-16-17-16-14--13-14--------------------------|
|-------12-13----12-13--12-13-------------------------13/14--------13/14-------|
|-----------------------------------------------------------14-----------14----|
|--------------------------------------------------------------16-----------15-|
|------------------------------------------------------------------------------|

|---------------------------------------------------------------------------|
|-------------9-12-12(B)-12-9-----------------------------------------------|
|--------9-11---------------11-9-11(B)--------------------------------------|
|---9-11--------------------------------------------------------------------|
|---------------------------------------------------------------------------|
|---------------------------------------------------------------------------|

Igy Pop

| Am | F | C | G | 

Musik Gruppe: 

Interpret: 

Bad Religion