Pour Some Sugar On Me

Printer Friendly, PDF & Email

Interpret

Def Leppard

Akkorde

|------------------------------|------------------------------|
|------------------------------|------------------------------|
|-----6h-4---4---x--6L-4--4--6-|-----6h-4---4---x--6L-4--4--3-|
|----------6---6---------------|----------6---6---------------|
|--4---------------------------|--4---------------------------|
|------------------------------|------------------------------|

|------------------------------|---------------------|
|------------------------------|---------------------|
|-----6h-4---4---x--6L-4--4--6-|-----6h-4---4-4---6--|
|----------6---6---------------|----------6-4-4---6--|
|--4---------------------------|--4------------------|
|------------------------------|---------------------|

Strophe
Gitarre II Fill              E  -> später C#m 8tel                                  
-----------------------------------|
-----------------------------------|
-----------------------------------|
--6-----6--------------6-----------|
--4-----4--------4-----4-----------|
--------------6-----6--------------|

----------------------------------------------------|
----------------------------------------------------|
-----------6-----x--4L----4-------------------------|
--------x--6-----x--4L----4-------------------------|
--4-----x--------x----------------------------------|
--2-------------------------------------------------|

    1          2         3   4   
(Bass F# 1, 1+ -    3, 3+ H
||-----------------------------||-----------------------------||
||-----------------------------||-----------------------------||
||-----------6-----x--4L----4--||-----------4--------2L----2--||
||--------x--6-----x--4L----4--||--------x--4--------2L----2--||
||--4-----x--------x-----------||--2-----x--------x-----------||
||--2--------------------------||--0--------------------------||

Musik Gruppe