Poison - Alice Cooper

Printer Friendly, PDF & Email

Akkorde

e-|-----------------------------------------------|
b-|-----------------------------------------------|
g-|-------------9-----7---------5-------5---------|
d-|-0--0--7--0-----0-----0--4h5----4h5------2--0--|
a-|-----------------------------------------------|
E-|-----------------------------------------------|

e-|---------------------------------------------------------------------------|
b-|---------------------------------------------------------------------------|
g-|-------------9-----7---------5------5--------------------------------------|
d-|-----0-7--0-----0-----0--4h5----4h5-----2--0-------------------------------|
a-|-3/5-----------------------------------------------------------------------|
E-|---------------------------------------------------------------------------|

   Bb5                                         D5
e-|------------------------------------------------------------------------|
b-|------------------------------------------------------------------------|
g-|-----------9-----7------------9-----7------7----------------------------|
d-|-----0-7-0----0-----0---7--0-----0-----0---7----------------------------|
a-|-3/5---------------------------------------5----------------------------|
E-|------------------------------------------------------------------------|


    "Your cruel device, your blood like ice, One lo__________________ok  
e-|--------------------------------------------------------------------------|
b-|----------------------------------------------.-----.---.-----.-----------|
g-|-------------------------------------------.--7--.--7---5--.--7-----------|
d-|-------------------------------------------5-----5---------5--------------|
a-|--------------------------------------------------------------------------|
E-|--------------------------------------------------------------------------|

e-|---------------------------------------------------------------------------|
b-|--------.-------.--.-------------------------------------------------------|
g-|----.--10------10--8--.---------------.-------.--.------.------------------|
d-|-.--8-------.---------8--.--------.--10------10--8--.--10---7-7-7-7-7-7-7--|
a-|-6----------6------------6-----.--8-------.---------8-------5-5-5-5-5-5-5--|
E-|-------------------------------6----------6--------------------------------|

Intro
| Dm | Dm |
|| Bb | D || 3x
| Bb | Bb |

Strophe
| Dm | Bb | F | C |
| Gm | Eb | Bbsus2 | D | D |

| Gm Eb | Bb F | Cm Ab | Eb Bb |
| Am F | C G | Dm Bb | F C |
Refrain
|| Dm Bb | F C || 4x

-->  Bb

Refrain Break Outro : | G | B | 

Solo

e-|---------------------------------------------------------------------------|
b-|--------------------------------------15-----------------------------------|
g-|-------------9--7------5----------17b~~---17--14-----14--------------------|
d-|----------7--------4-5---------------------------17------16b-rb------------|
a-|-----3b--------------------7--5~~-------------------------------17--15-\---|
E-|-3b------------------------------------------------------------------------|

e-|-------------------------------17----17-20-20b-~~---|
b-|----17-18----17-18-20----18-20----20----------------|
g-|-19-------19----------19----------------------------|
d-|----------------------------------------------------|
a-|----------------------------------------------------|
E-|----------------------------------------------------|

Liedtext

Your cruel, device
Your blood, like ice
One look, could kill
My pain, your thrill

I want to love you but I better not touch (Don't touch)
I want to hold you but my senses tell me to stop
I want to kiss you but I want it too much (Too much)
I want to taste you but your lips are venomous poison
Your poison running through my veins
Your poison, I don't wanna break these chains

Your mouth, so hot
Your web, I'm caught
Your skin, so wet
Black lace, on sweat

I hear you calling and it's needles and pins (And pins)
I want to hurt you just to hear you screaming my name
Don't want to touch you but you're under my skin (Deep in)
I want to kiss you but your lips are venomous poison
Your poison running through my veins
Your poison, I don't wanna break these chains
Poison

One look, could kill
My pain, your thrill

I want to love you but I better not touch (Don't touch)
I want to hold you but my senses tell me to stop
I want to kiss you but I want it too much (Too much)
I want to taste you but your lips are venomous poison
Your poison running through my veins
Your poison, I don't wanna break these chains
Poison

I want to love you but I better not touch (Don't touch)
I want to hold you but my senses tell me to stop
I want to kiss you but I want it too much (Too much)
I want to taste you but your lips are venomous poison, yeah
I don't wanna break these chains
Poison, oh no
Runnin' deep inside my veins,
Burnin' deep inside my veins
It's poison
I don't wanna break these chains
Poison

Musik Gruppe