With Or Without You 

Printer Friendly, PDF & Email

Interpret

U2

Akkorde

| D | A | Hm | G |

nach 4 Takten Bass :

|--14--|--14--|--14--|--14-15--|--17--| % |

I'll wait for |--19-19--|--19-17--|--15-14---|--14--|--14--|

On a bed of nails she makes |--14-15--||--14-(5x)-||

withor without you |--12--|--12--|--14-15--||--14-(10x)-||

with or without, with or with- |--15--|--15--|--10--|--10-9--|

|--7--|--7--|--5--|-5-15--|--17--|


e|-----10-----10---10------10---------------|
B|--8------8------------8-------7-----------|
G|----------------------------------------0-|
D|-------------------------------------0----|
A|------------------------------------------|
E|------------------------------------------|


Solo, Outro

e|-----2-2-2-2-----0-0-0-0------2-2-2-2-----3-3-3-3-|
B|--3-----------3-----------3------------3----------|
G|--------------------------------------------------|
D|--------------------------------------------------|
A|--------------------------------------------------|
E|--------------------------------------------------|

Musik Gruppe