Notorious

Printer Friendly, PDF & Email

Interpret

Duran Duran

Akkorde

Main Riff & Strophe

|| Dm7 ||

|| Csus2 G ||

| Csus2 A | Dm7 |

    Dm7
||--5--------7--------8--|--8--------7--------5--|
||--6--------6--------6--|--6--------6--------6--|
||--5--------5--------5--|--5--------5--------5--|
||--7--------7--------7--|--7--------7--------7--|
||--5--------5--------5--|--5--------5--------5--|
||-----------------------|-----------------------|

    Csus2                G
||--3-----x--3--3-----3--3-----x--3--3-----3--3--||
||--3-----x--3--3-----3--3-----x--3--3-----3--3--||
||--5-----x--5--5-----5--4-----x--4--4-----4--4--||
||--5-----x--5--5-----5--5--------5--5-----5--5--||
||--3-----x--3--3-----3--------------------------||
||-----------------------------------------------||

   Csus2                A
|--3-----x--3--3-----3--5-----x--5--5-----5--5--|
|--3-----x--3--3-----3--5-----x--5--5-----5--5--|
|--5-----x--5--5-----5--6-----x--6--6-----6--6--|
|--5-----x--5--5-----5--------------------------|
|--3-----x--3--3-----3--------------------------|
|-----------------------------------------------|

Refrain

|| A A7 | G G7 ||

Dm7

Musik Gruppe