My Best Theory

DruckversionDruckversion

Akkorde: 

Intro & Chorus

​e|-------------------|--------------------|-------------------|-------------------|
b|-------------------|--------------------|-------------------|-------------------|
g|-------------------|--------------------|-------------------|-------------------|
d|-9-9-------------9-|-9------------------|-7-7-------------7-|-7-----------------|
a|-----7-7----7------|---7-7-------7-7-(7)|-----7-7----7------|---7-7-------7-7-7-|
e|---------10---10---|-------10-10-----10-|---------10---10---|-------10-10-------|

Lead Fill Verse

e--------------------------------------------------------------|
b-8888888888888888-77777777----------8888888888888888-77777777-|
g---------------------------99999999---------------------------|
d--------------------------------------------------------------|
a--------------------------------------------------------------|
e--------------------------------------------------------------|

Verse & Chorus

| Em | G | D | A |

e|-----------------  
b|-----------------  
g|-----------------  
d|-9-9------------- Em 
a|-----7-7----7----  
e|---------10---10-  

Bridge

| Em | Em | G | G | 
| C | C | H | H |
| Em | Em | G | G | 
| C | C | H | Eb |

Solo

| Em | Em | G | G | 
| Em | Em | H | Eb |

Lead

e|--------------------------------||---------------------|
b|--------------------------------|| --------------------|
g|-------------------------- 3x --|| -----------88888888-|
d|-9br-9br----------------7-------|| --99999999----------|
a|---------10-9----7-9-10---------|| --------------------|
e|--------------10----------------||---------------------|

Musik Gruppe: 

Interpret: 

Jimmy Eat World