Mustang Sally - Commitments

DruckversionDruckversion

Noten Anmerkungen: 

<p><span style="font-size:18px;">auf C</span></p>

Akkorde: 

G|-----------------------------------------------------------|
D|-------------------------------------------------3---1-2-3-|
A|-3---1-2-3---1-2-3---1-2-3---1-2-3---1-2-3---1-2---3-------|
E|---3-------3-------3-------3-------3-------3---------------|

G|-----------------------------------------|
D|---1-2-3---1-2-3---1-2-------------------|
A|-3-------3-------3-----3---1-2-3---1-2-3-|
E|-------------------------3-------3-------|

ONE OF THESE EARLY MORNINGS...
G|------------------------------|
D|5-5-5-5-5-5-5-5-5-5-5-5-5-4-3-|
A|------------------------------|
E|------------------------------|

Blues Schema auf C7

 

 

Musik Gruppe: