Minority

Printer Friendly, PDF & Email

Interpret

Green Day

Akkorde

Intro
|| C G | Fmaj7 C ||

Strophe
| C G | F C |
| C G | F G |
| C G | F C |
| C | G |

Refrain
|| C | F | G | F |

Bridge

  Am      E   F        C           Am      E   F        G
|-----------|-------------------|------------|-----------------|
|-----------|-------------------|------------|-----------------|
|---------9-|-10101010----------|--2222222---|-----------------|
|-7777777-9-|-10101010-10101010-|--2222222-2-|-3-3-3-3-5-5-5-5-|
|-7777777-7-|-8-8-8-8--10101010-|--0000000-2-|-3-3-3-3-5-5-5-5-|
|-5555555---|----------8-8-8-8--|----------0-|-1-1-1-1-3-3-3-3-|

  Am      E   F        C           Am      E  G                    H
|-----------|-------------------|------------|------------------------|
|-----------|-------------------|------------|------------------------|
|---------9-|-10101010----------|--2222222---|---------------------4--|
|-7777777-9-|-10101010-10101010-|--2222222-2-|5-5xxx5-5xxx5-5-5555-4--|
|-7777777-7-|-8-8-8-8--10101010-|--0000000-2-|5-5xxx5-5xxx5-5-5555-2--|
|-5555555---|----------8-8-8-8--|----------0-|3-3xxx3-3xxx3-3-3333----|

  Outro riff
 |----0--1--3--8--3--1--0-----0--1--3---8-----8--|
 |-1-----------------------1-----------8---8-----|
 |-----------------------------------------------|
 |-----------------------------------------------|
 |-----------------------------------------------|
 |-----------------------------------------------|

Musik Gruppe