The Middle

Printer Friendly, PDF & Email

Interpret

Jimmy Eat World

Akkorde

Intro Gitarre 1

D|-4--4--0--0--0--0--0--0-|-0--0--0--4--4--4--4--4-|-2--2-------------------|------------------------|
A|------------------------|------------------------|-------4--4--4--4--4--4-|-4--4--4--4--4--4--4--4-|
D|------------------------|------------------------|------------------------|------------------------|

D|-0--0--0--0--0--0--0---|-------------------------|-0--0--0--0--0--0--0--0-|-0--0--0--0--0--0--0--0-|
A|---------------------4-|--4--4--4--4--4--4--4--4-|------------------------|------------------------|
D|-----------------------|-------------------------|------------------------|------------------------|

Intro & Strophe Gitarre 2 (jeweils 1/8)
    D       A       G       A
D||-0-|-0-|-7-|-7-|-5-|-5-|-0-|-0-||

Strophe 1
Gitarre 1 (2. Durchgang)
G|-7-7-7-7-7-7-7-7-|-7-7-7-7-6-6-6-6-|-7-7-7-7-7-7-7-7-|-7-7-7-7-7-7-7-7-|
D|-0-0-0-0-0-0-0-0-|-0-0-0-0-0-0-0-0-|-0-0-0-0-0-0-0-0-|-0-0-0-0-0-0-0-0-|
A|-----------------|-----------------|-----------------|-----------------|
D|-----------------|-----------------|-----------------|-----------------|

G|-4-4-2-2-2-2-2-2-|-2-2-2-2-6-6-6-6-|-7-7-7-7-7-7-7-7-|-7-7-7-7-7-7-7-7-|
D|-0-0-0-0-0-0-0-0-|-0-0-0-0-0-0-0-0-|-0-0-0-0-0-0-0-0-|-0-0-0-0-0-0-0-0-|
A|-----------------|-----------------|-----------------|-----------------|
D|-----------------|-----------------|-----------------|-----------------|

Refrain 
| D (XII) | A (VII) | G (V) | D (XII) |

Strophe 2

Gitarre 1
e----7-----7-----7--7--7-----| 
B--10-10-10-10-10-10-10-10---| 
G-7-----7-----7--------------| 8x 
D----------------------------| 

Gitarre 2 wie in Strophe 1

Solo
Ausu2 (|x02200|)
|| A (VII) | A | D (0) | D ||
| G (V) | G | D | D |
| A (VII) | A | Asus2 | Asus2 |

e------------------------------------------------------/
B-2-3-2-0----------------------------------------------/
G----------2-4-2-0-------------------------------------/
D-------------------4-5-4-0-----------4-0-0------4-----/
A----------------------------2-4-2-0----------4-----4--/
D------------------------------------------------------/

e-----------------------    e-----------------------------------------------|
B-----------------------    B-----------------------------------------------|
G----------------------- 2X G---------------------------------------7---7-9-|
D-----------------------    D-----------------7-5-4-5-4-5-7-5-4-4-0---0-----|
A-7-5-4-5-4-5--4-5-4-0--    A-0-0-2-2-4--5--5-------------------------------|
D----------------------0    D-----------------------------------------------|

e-------------------------------------------0-0-0-0-0-0-|
B----------------------15-15-14-14-12-12-10-8-7-5-3-2-0-|
G---9-11---11-12-11-12----------------------------------|
D-0------0----------------------------------------------|
A-------------------------------------------------------|
D-------------------------------------------------------|


Musik Gruppe