Mercy Mercy Mercy

Printer Friendly, PDF & Email

Interpret

Joe Zawinul

Akkorde


        Gm F Gm F   Gm 
|-----|-----------|----||---------------------|------------------||
|-----|-----------|----||-----------------3---|------------------||
|-----|-----------|----||-------------------3-|-/5--3-3---/3--5--||
|---3-|-----------|----||--(3)/5--3-----------|---------3--------||
|-5---|-----------|----||---------------------|------------------||
|-----|-----------|----||---------------------|------------------||




|---------------------------------------------------------------------------------|
|---------------------------------------------------------------------------------|
|---------------------------------------------------------------------------------|
|---------------------------------------------------------------------------------|
|---------------------------------------------------------------------------------|
|---------------------------------------------------------------------------------|




|---------------------------------------------------------------------------------|
|-------3-3--4-4--6---------------------------------------------------------------|
|--3-3----------------------------------------------------------------------------|
|---------------------------------------------------------------------------------|
|---------------------------------------------------------------------------------|
|---------------------------------------------------------------------------------|

 

 

Musik Gruppe