Master and Servant - Depeche Mode

Printer Friendly, PDF & Email

Noten Stimmung

D#

Akkorde

D||-------------------------|
A||-2-----2-2--5--2---------|
E||-------------------------|

G||-------------9-11-11-9----9-11-|----------------|----------------||
D||-9---9--12-------------12------|-9---9-9-9-12-9-|-9---9-9-9-12-9-||
E||-------------------------------|----------------|----------------||
E||-------------------------------|----------------|----------------||


D||-------------2--4--4-2---2-4--|----------------|----------------||
A||-2---2---5-------------5----2-|-2---2-2--5--2--|-2---2-2--5--2--||
E||------------------------------|----------------|----------------||


Strophe
| Hm | E D |
| Hm | D F# |
| Hm | E G |

|| Hm | E D ||

Bridge
| E | E Hm |
| E | E Hm |
| E | E | F# | F# |

nach 2. Bridge auf C#m
=> Solo
über Thema und C#m Skala
=> Intro

Musik Gruppe