Love Somebody

Interpret

Rick Springfield

Akkorde

Intro & Strope
|| D | D | G | A ||
| G | D | G | Em |
| D | D | A | nc |

Refrain
|| D | A | G | Hm A || 3x
| (A) G | G | G | nc |

Strophe & refrain

Bridge

| Hm | Em | A | A |
| Hm | Em | A | A G |

Solo 
|| B C || 4x
|| G A || 3x  --> G

||----------------------|-----------------||
||--6-------8-------(6)-|-6------8------8-||
||----7-------9---------|---7------9------||
||------8-------10------|-----8------10---||
||----------------------|-----------------||
||----------------------|-----------------||

                      --> Hm Scale
|--7------9------10-|----12-14-15-14-12----------------|
|----8------8-------|-12----------------15-14-12-------|
|------7------7-----|----------------------------12-11-|
|-------------------|----------------------------------|
|-------------------|----------------------------------|
|-------------------|----------------------------------|

                      --> Hm Scale Fast
|--7------9------10-|----------------------------------|
|----8------8-------|----------------------------------|
|------7------7-----|----------------------------------|
|-------------------|----------------------------------|
|-------------------|----------------------------------|
|-------------------|----------------------------------|

 

Musik Gruppe