Love of my Life

Printer Friendly, PDF & Email

Interpret

Queen

Akkorde

  D               Bm               Em                A
|--------2------|-------2--------|-0-------0-------|------------------|
|-3-2-3------3--|-3-2-3------3---|-0-----0-------3-|-2---3----5-/-2-2-|
|-2--------2----|-4------------4-|-0---0-------0---|-2-2---2----/-----|
|-0-------------|-4--------4-----|---2-------2-----|-2---4----5-/-2-2-|
|-0-----------4-|-2--------------|-----------------|-0----------------|
|---------------|----------------|-0---------------|------------------|
 
  D              Bm                G        D/F#      E Am6 E7 E9-
|-------2------|-------2---------|-----0--------0---|--------------|
|-3-2-3--------|-3-2-3------3--3-|-3-3---3--3-3---3-|--------------|
|-2------------|-4---------------|-4--------2-------|-1--2--4--7-0-|
|-0--------0---|-4--------4------|-5--------0-------|-2--4--6--9---|
|-0----------4-|-2------------0--|------------------|-2--3--5--8---|
|--------------|-----------------|-3--------2-------|-0--0--0--0---|
 
Strophe
  A             F#m                Bm              E  Am6  E7  E
|-------0-----|------------------|-------2-------|----------------|
|-2-0-------0-|------------2-----|-3-2-3-----3---|----------------|
|-2---2---2---|--------2-------2-|-4-----------4-|-1---2---4-/-1--|
|-2-----------|------4---4---4---|-4-------4-----|-2---4---6-/-2--|
|-0-----------|------------------|-2-------------|-2---3---5-/-2--|
|-------------|-4-2--------------|---------------|-0---0---0-/-0--|
 
  A                  D                Bm       F#m      G       G6
|-------0--3-3-----|-------2--------|------------------|------------------|
|-2-0------2-2-3-3-|---3------------|-3-----3--2-----2-|-3-2-----0--3--3--|
|-2---2----2-2-----|-2---2---2------|-4---4----2---2---|-4---4---4--2--2--|
|-2--------------0-|------------0---|-4-4------4-4-----|-5-------5--0--0--|
|-0----------------|--------------4-|-2----------------|------------0-----|
|------------------|----------------|----------2-------|-3-------3--------|
 
  G     D     Bm       Em        A           D         Alternativ
|--------------------|-0-----0------------||------2-||----7----5----3----2-|
|-3-----3-----3------|-0---------2-----2--||-----3--||---9----7----5----3--|
|-4-----2--2-----4---|-0---0-----2---2----||---2----||--0----0----0----2---|
|-5--5--0------------|----2------2-2------||-0------||-0----0----0----0----|
|-------0-----2------|-----------0--------||--------||---------------------|
|-3------------------|-0------------------||--------||---------------------|
 
Übergang zwischen den Strophen
 
|-7----7-----5----5---|
|-5----------5--------|
|-7--7---7---7--7---7-|
|-5----------4--------|
|---------------------|
|---------------------|



Bm                   F#m
You will remember - When this is blown over
G                           D
And everything's all by the way -
Bm               F#m                      D#dim (001212)
When I grow older I will be there at your side to remind you
Em                     A
how I still love you - still love you.
 
Bm                 F#m
Hurry back - hurry back,
G                       D
Don't take it away from me,
|  G    D    Bm | Em   A       |     D      
because you don't know what it means to me -
Bm                 F#m                     G(III)   D
Love of my life    Love of my life...

Musik Gruppe