Is This Love

Printer Friendly, PDF & Email

Interpret

Whitesnake

Akkorde

        Em                   weitere Hm7       Cadd9
-----||---------------------------|-------------------------||
-----||-----------------------(7)-|-----------------3-------||
-----||--------------0-----(5)-|--------0-------------0--||
-----||------------------------|-----4--------4----------||
-0-2-||------------------------|--2--------3-------------||
-----||-0-------------------------|-------------------------||

e|--------------------------|------------------------|
B|--8--7-----5-----3-----0--|--0h--1-----------------|
G|--9--7-----5-----4-----0--|---------2--------------|
D|--9--7-----5-----5-----3--|---------3--------------|
A|--------------------------|--------------------0-2-|
E|--------------------------|------------------------|

[Chorus]

| C | D/C | Hm7 | C Hm7 Am7 G |
| C | D/C | Hm7 | C Hm7 Am7 G Cmaj7 Fmaj7 |

e|-15-14-12------|   |-15-14-12--------12----|
B|----------15---|   |----------15--15----13-|
G|---------------|   |-----------------------|​
|----------------------------|--------------------------|--------------------------|-------------------|
|----------------------------|--7--------7--------------|--7--------7--------------|-------------------|
|---9---------9--------------|--7--------7--------------|--7--------7--------------|-------------------|
|--10--------10--------------|--7--------7--------------|--9--------9--------------|-------------------|
|--10--------10--------------|--------------------------|--------------------------|-------------------|
|------8--8------8--8--8--8--|-----8--8-----8--8--8--7--|-----7--7-----7--7--7--7--|--8-7---5---3--5-7-|

Solo 1

|-14b15-------14b15--14b15-|-14---------14-15-|-12-------12g14-|----------|-------|
|--------------------------|------------------|----------------|--15-12---|-------|
|--------------------------|------------------|----------------|----------|--11---|

Solo 2


e|----------------------|---------|---------|---------|
B|----------------------|---------|---------|---------|
G|-14p12----14b16-14b16-|~~~~~~~~~|~~~~~~~~~|~~~~~~~~~|
D|-------14-------------|---------|---------|---------|
A|----------------------|---------|---------|---------|
E|----------------------|---------|---------|---------|

e|------------------------|---------------------|---------------------|------------------------|
B|------------------------|---------------------|---------------------|------------------------|
G|-11b12-r11b12r11-b12r11-|-b12r11b12r11-b12r11-|-b12r11b12r11-b12r11-|-b12r11b12r11-b12r11-///|
D|------------------------|---------------------|---------------------|------------------------|
A|------------------------|---------------------|---------------------|------------------------|
E|------------------------|---------------------|---------------------|------------------------|

e|----------------------------|-----------|----|-----------|
B|----------------------------|-17b19-r17-|----|-15b17-r15-|
G|----------------------14h16-|-----------|-14-|-----------|
D|-------------14h16h17-------|-----------|----|-----------|
A|---------\17----------------|-----------|----|-----------|
E|-(\10h12)-------------------|-----------|----|-----------|

e|-------------------|-14-14-------------------------|---------|-------|
B|-15b17-17r15-12-15-|-------15-12-------------------|---------|-------|
G|-------------------|-------------14b16r14p12-14----|12-12----|-------|
D|-------------------|----------------------------14-|------14-|~~~~//-|
A|-------------------|-------------------------------|---------|-------|
E|-------------------|-------------------------------|---------|-------|

e|----12----|-14----15-15b17-|-~~~~-|-15p14-15-~~~~~~~-|
B|-12----12-|----12----------|------|------------------|
G|----------|----------------|------|------------------|
D|----------|----------------|------|------------------|
A|----------|----------------|------|------------------|
E|----------|----------------|------|------------------|

e|----12----|-14----15----17b19-|-~~~~-|-17b19-r17p15-17~~~|
B|-12----12-|----12----12-------|------|-------------------|
G|----------|-------------------|------|-------------------|
D|----------|-------------------|------|-------------------|
A|----------|-------------------|------|-------------------|
E|----------|-------------------|------|-------------------|


e|-------|-20b22-r20--19b20r19-|-------------------|--------------------|
B|-17-17-|---------------------|-20-------17-19-20-|-b22r20p17-------17-|
G|-------|---------------------|----19b21----------|-----------19b21----|
D|-------|---------------------|-------------------|--------------------|
A|-------|---------------------|-------------------|--------------------|
E|-------|---------------------|-------------------|--------------------|


e|-------------|-20-19-------------------|-------------------------------|
B|-------17-20-|-------20-17-20b22-20b22-|-------------------------------|
G|-19b21-------|-------------------------|-21-19-21-19-17----------------|
D|-------------|-------------------------|----------------21-19-17-19-21-|
A|-------------|-------------------------|-------------------------------|
E|-------------|-------------------------|-------------------------------|


e|----------|----------|-----------|
B|-19b20-19-|----------|----17-17--|
G|----------|-19b21-19-|-19--------|
D|----------|----------|-----------|
A|----------|----------|-----------|
E|----------|----------|-----------|

Musik Gruppe