Long Road To Ruin

Printer Friendly, PDF & Email

Interpret

Foo Fighters

Akkorde

Intro

C

Strophe

Gitarre 1

|| C | C | C | C | F | F | F | F || 2x

| C | C |

Gitarre 2

e-||--0---0---0---0-|--------------3-|----------0---0-|----------------||
B-||--1---3---5---3-|--1---0---1-----|--1---3---5---3-|--1---0---1-----||
G-||----------------|----------------|----------------|--------------0-||
D-||----------------|----------------|----------------|----------------||
A-||----------------|----------------|----------------|----------------||
E-||----------------|----------------|----------------|----------------||

Pre-Chorus

Gitarre 1

| Am | Gsus4/H | C | Gsus4/H |
| Am | Gsus4/H | C | D |

Gitarre 2
   Am               Gadd4/H          C            Gadd4/H
D-|----------------|----------------|----------------|----------------|
A-|0-----------0---|2-----------2---|3-----------3---|2-----------2---|
E-|------1---------|------3---------|------5---------|------3---------|

   Am               Gadd4/H          C                D
D-|----------------|----------------|----------------|----7-7-7-7-7---|
A-|0-----------0---|2-----------2---|3-----------3---|5---5-5-5-5-5-0-|
E-|------1---------|------3---------|------5---------|--------------0-|

Refrain

| F | C | F | C Gsus4/H |

| Am | D |  beim jeweils letzten Refrain | F | F |

Gitarre 2 über | F | F |

G|-----------------|-----------------|
D|-3-3-3-3-5-5-5-5-|-7-7-7-7-9-9-9-9-|
A|-----------------|-----------------|
E|-1-1-1-1-3-3-3-3-|-5-5-5-5-7-7-7-7-|

Strophe 2

Refrain 2x

Bridge

|| Cadd9 | Gsus4/H || 2x

vocals

|| Cadd9 | Gsus4/H || 3x
| Am7/G | Gsus4 | Am7 | Gsus4/H |
| C | Gsus4/H | Am7 | Gsus4/H |

    C                           H
E||----------3----------------|----------3----------------||
B||------1--------1-------1---|------1--------1-------1---||
G||---------------------------|---------------------------|| 3x
D||---------------------------|---------------------------||
A||-3-----------------3-------|-2-----------------2-------||
E||---------------------------|---------------------------||

   E                           D                           C
E|----------3----------------|----------3----------------|----------3----------------|
B|------1--------1-------1---|------1--------1-------1---|------1--------1-------1---|
G|---------------------------|---------------------------|---------------------------|
D|-2-----------------2-------|-0-----------------0-------|---------------------------|
A|---------------------------|---------------------------|-3-----------------3-------|
E|---------------------------|---------------------------|---------------------------|

   H                           A                           G
E|----------3----------------|----------3----------------|----------3----------------|
B|------1--------1-------1---|------1--------1-------1---|------1--------1-------1---|
G|---------------------------|---------------------------|---------------------------|
D|---------------------------|---------------------------|---------------------------|
A|-2-----------------2-------|-0-----------------0-------|---------------------------|
E|---------------------------|---------------------------|-3-----------------3-------|

   A                           H                           C
E|----------3----------------|----------3----------------|----------3----------------|
B|------1--------1-------1---|------1--------1-------1---|------1--------1-------1---|
G|---------------------------|---------------------------|---------------------------|
D|---------------------------|---------------------------|---------------------------|
A|-0-----------------0-------|-2-----------------2-------|-3-----------------3-------|
E|---------------------------|---------------------------|---------------------------|

   H                           A                           H
E|----------3----------------|----------3----------------|----------3----------------|
B|------1--------1-------1---|------1--------1-------1---|------1--------1-------1---|
G|---------------------------|---------------------------|---------------------------|
D|---------------------------|---------------------------|---------------------------|
A|-2-----------------2-------|-0-----------------0-------|-2-----------------2-------|
E|---------------------------|---------------------------|---------------------------|

| C (no Chord) | D |


SOLO
   F5               C5                  F5               C5          G/B
e-|------3------------------------------------3--------------------------|
B-|--------------5b6--5-3h5p3p1-3-1-------------------5b6--5-3h5-3p1-----|
G-|--0h2-------0--------------------2p0---0h2-------0----------------2p0-|
D-|----------------------------------------------------------------------|
A-|----------------------------------------------------------------------|
E-|----------------------------------------------------------------------|

   Am                    D                   F5              C5
e-|---------------------------------------------------------------------------|
B-|1h3p1-1---------------------------------------------------------5----------|
G-|-----2-2p0-0----------------------------------------------------5-----5-7b9|
D-|----------2-2p0-0h2p0-0h2p0-0h2p0-0-------------------5---5h7-0-----7------|
A-|---------------3-----3-----3-----3--3-0-3---3-5-3-5h7---7-----0------------|
E-|---------------------------------------------------------------------------|

   F5              C5          G/B Am                 D
e-|---------------------------------------------------------------------|
B-|----------------------------0-0-5------------------------------------|
G-|9-9-9-9-9r7-5h7-5h7-5-------0-0-5------5------5------5---------------|
D-|----------------------------0-0---7p5----7p5----7p5--5---------------|
A-|-------------------------------------7------7------7---7p5p3-5-3-----|
E-|-----------------------------------------------------------------5-3-|

Musik Gruppe