Les passants - ZAZ

DruckversionDruckversion

Akkorde: 

Intro
----------------------|-----------------------
----------------------|----------8-6-4-6-4---- 
-5-4-5-7-8-7-5-7-5----|--5-4-5-7-8-7-5-7-5----
----------------------|-----------------------
----------------------|-----------------------
----------------------|-----------------------

Strophe
|| Cm | % | Fm7 | % | G7 | % | Cm | % ||

Refrain 1. & 3.
|| Ab | B | Cm | % ||
Refrain 2
| Ab | B | Cm | % |
| Ab | B | Cm6 | % |

Bridge
| Cm | % | Fm7 | % | G7 | % | Cm | % |
|| Cm Cm
maj7 | Cm7 Cm6 |
| Fm7 Fm6 | Fm7 Fm6 |
| G7 | % | Cm | % ||
4x

--> Refrain
Solo
|| Cm | % | Fm7 | % | G7 | % | Cm | % ||

--> Refrain 4x

 Cm Cmmaj7 Cm7 Cm6 Fm7 Fm6
-3----3-----3---3---1---1--
-4----4-----4---4---1---3--
-5----4-----3---2---1---1--
-5----5-----5---x---1---1--
-3----4-----3---3---3---3--
--------------------1---1--

Noten Datei: 

AnhangGröße
Datei Les passants.docx15.86 KB

Musik Gruppe: