Kryptonite

Printer Friendly, PDF & Email

Interpret

3 Doors Down

Akkorde

Intro & Strophe

|| Hm | G Asus2 ||


1|----------------------------------------------------
2|-----------3--------------------------0-------------
3|---------4---4----0---------0-------2-----Repeat 3x-
4|------4--------4----------0-------2-----------------
5|---2--------------------2-------0-------------------
6|----------------------3-----------------------------

Refrain

|| Hm | G A |
| Hm | E F
# |
 

Solo
1|---------------------------------------------------------------------
2|---------------------------------------------------------------------
3|---------------------------------------------------------------------
4|------------------2-----------------------------02020202-------------
5|--2--4--5--4--5-4----5--4-5-4-0-2--0--2--0--2-0---------45454545-----
6|---------------------------------------------------------------------

1|---------------------------------------------------------------------
2|---------------------------------------------------------------------
3|---------------------------------------------------------------------
4|------------------2-----------------------------02020202-------------
5|--2--4--5--4--5-4----5--4-5-4-0-2--0--2--0--2-0---------45454545-2---
6|---------------------------------------------------------------------

Musik Gruppe