Jump - Chor Version

Printer Friendly, PDF & Email

Akkorde

Transponiert auf B

|| B | B D# F ||

Bridge

| Gm | Gm |
|| Eb B/D Cm | Cm ||
2x
| Eb B/D F | F |

E||------------------------||------------------------|
B||------------------------||-----------------8/10-8-|
G||-----3--------3--5/7--5-||-----3--------3---------|
D||---5--------3-----------||---5--------3-----------|
A||-6------6-5-------------||-6------6-5-------------|
E||------------------------||------------------------|

Guitar Solo
|| Abm E | Gb H ||

Keyboard Solo

| B | % | % | % |
| D# | % | F | % |
| G# | % | G | % |
| F# | % | F | % |

E|-----16-----------4--------|-4--------------4-----------------------------|
B|----------------------7----|----4--7--4--------------------4--------------|
G|---------------------------|-------------7-----7--6--4--6-----4---4----4--|
D|---------------------------|----------------------------------------------|
A|---------------------------|----------------------------------------------|
E|---------------------------|----------------------------------------------|

E|-------------------------------------|----------------------------------------4--7--11-|
B|-----4------4------4---4---4---------|-------------------------------------------------|
G|-------------------------------------|-6---6-------------------------------------------|
D|-------------------------------6-----|--------6--4-----4-------------------------------|
A|----------------------------------6--|--------------6-----6--5--4--2--4--2-------------|
E|-------------------------------------|-------------------------------------------------|

E|-7--6--4--7--11-7--6--4--7--11-7--6--4----------------------------------|-----------------------|
B|----------------------------------------7--11-4-------------------------|-----------------------|
G|-------------------------------------------------7--11-4-8--------------|--------6---6--4--6----|
D|-----------------------------------------------------------11-4-8-------|-----------------------|
A|-----------------------------------------------------------------11-4-8-|-4---------------------|
E|------------------------------------------------------------------------|-----------------------|

E|--------------4---6---9---11--7--9--|--------------------------------------------------------|
B|-----------4------------------------|-----------------------------------------------13-14-16-|
G|-6------4---------------------------|--------------------------------------13-14-16----------|
D|-----6------------------------------|-----------13-14-16----------13-14-16-------------------|
A|------------------------------------|-13--14-16----------13-14-16----------------------------|
E|------------------------------------|--------------------------------------------------------|

E|-13-14-13--------------|
B|-----------------------|
G|-----------------------|
D|-----------------------|
A|-----------------------|
E|-----------------------|

 

 

Musik Gruppe