It's not my time

Printer Friendly, PDF & Email

Interpret

3 Doors Down

Akkorde

Intro:
    Am           C                      F      F
e|------------------|-----------------|------|-----|
b|--0-1----------0--|-------------0---|------|-----|
g|------2-----------|---0-------0---0-|------|-----|
d|--------2---------|-2---2---2-------|------|-----|
a|--0-------0-0--3--|-------3---------|------|-----|
e|------------------|-----------------|------|-----|

 Am G |                     | 1.--
| F | C | G | G   Am G |

Strophe
|| F | Am || Clean Picking
|| F | Am || Rhythm

Refrain
 Am G |                        | 1.--
|| F | C | G | G   Am G ||

Refrain Gitarre 2


-----------------------------------------------------------------------------|
-----------------------------------------------------------------------------|
-----17--16--14---14-14-14-14---17---17-17-17-17---16---16-16-16-16---16--16-|
-----xx--xx--xx---xx-xx-xx-xx---xx---xx-xx-xx-xx---xx---xx-xx-xx-xx---xx--xx-|
-----15--14--12---12-12-12-12---15---15-15-15-15---14---14-14-14-14---14--14-|
-----------------------------------------------------------------------------|

Solo
e|----12----12-----------12----12------------0----0--------0-------0---|
B|-15----15----15-14--13----13----13--13--12---12---12--10---10--8---8-|
G|---------------------------------------------------------------------|

Bridge
| F | C | G | G |

Solo 2 - Fast Alternate Picking

-----------------------------------------------------|
-----------------------------------------------------|
-----------------------------------------------------|
-----------------------------------------------------|
--15-15-15-15-15-15-15-15-15-14-14-14-14-14-14-14-14-|
-----------------------------------------------------|

----------------------------------------------------------------------|
----------------------------------------------------------------------|
----------------------------------------------------------------------|
----------------------------------------------------------------------|
-17-17-17-17-17-17-17-17-15-15h17-17-15-15h17-17-15-15h17-17-15h17-17-|
----------------------------------------------------------------------|

Intro
Strophe
Refrain
Strophe
Refrain 2x
Bridge Solo 2
Bridge
Pause
Refrain 2x
Bridge
Strophenthema offen Phaser

 

Musik Gruppe