Ich will Spass

Interpret

Markus

Akkorde

Intro 

||----------------|---------------||
||----------------|---------------||
||--------9-------|-------6-6-----||
||--7-9-7---7-9-7-|-7-9-7-----9-7-||
||----------------|---------------||
||----------------|---------------||

Strophe

|| A | A | D | E ||

Refrain

| A | F#m | Dsus2 | Esus4 |

Solo 

|| A | F#m ||

| D | E |

E |-------------------------|--------------------|-----------------------|--------------------|
B |--14-------12----14L-----|--14-12----14----12-|--14-------12--14L-----|--14-------12----14-|
G |-------------------------|--------------------|-----------------------|-----14-------------|
D |-------------------------|--------------------|-----------------------|--------------------|
A |-------------------------|--------------------|-----------------------|--------------------|
E |-------------------------|--------------------|-----------------------|--------------------|

------------------------|----------14-----------|-----------------------|---------------------|
--------14-17--14----14-|-------14-----14-------|-------14-17--14-------|--------14-17--14----|
--14-16-----------16----|-14-16-----------16-14-|-14-16-----------16-14-|--14-16-----------16-|
------------------------|-----------------------|-----------------------|---------------------|
------------------------|-----------------------|-----------------------|---------------------|
------------------------|-----------------------|-----------------------|---------------------|

--------12-14----12---------|-----12-----14---12----14L--|--14L---------------14-12--|--12---||
--12-14----------------14L--|--14------------------------|---------------------------|-------||
----------------------------|----------------------------|---------------------------|-------||
----------------------------|----------------------------|---------------------------|-------||
----------------------------|----------------------------|---------------------------|-------||
----------------------------|----------------------------|---------------------------|-------||

Musik Gruppe