I want it all

DruckversionDruckversion

Noten Stimmung: 

D#

Akkorde: 

Intro
| Hm A Hm | G D/F# G | A G A | Hm A |
| Hm | G A | Hm | G A |

E|------7----------------10-7--10-7-------------|--------------------------------------17/-|
B|-10/----10-7-10-7-10-7-------------10-7--10---|-10--10-7--10-----------------------------|
G|----------------------------------------------|--------------9--9--7--9--7--9--7-7-7-----|
D|----------------------------------------------|------------------------------------------|
A|----------------------------------------------|------------------------------------------|
E|----------------------------------------------|------------------------------------------|

E|-17----------------------17-----------|---------------------|
B|---------17/-17--17/-17------17/17-15-|-17/--17-17-15-------|
G|--------------------------------------|--------------16--14-|
D|--------------------------------------|---------------------|
A|--------------------------------------|---------------------|
E|--------------------------------------|---------------------|

Strophe
|| Hm | G D/F# G | A | Hm A || 2x
| D G | A G | A | G |

Fills Strophe
                   Hm                G              A            Hm    A
E||--------------|---b-------b-----|--------------|-----------|-------------------|
B||-7-10/(12)-10-|-10/(12)-10/(12)-|---b----------|-----------|-------------------|
G||--------------|-----------------|--9/(11)-9--7-|--9--11-9--|-------------------|
D||--------------|-----------------|--------------|-----------|-9--------7--------|
A||--------------|-----------------|--------------|-----------|----9--9-----------|
E||--------------|-----------------|--------------|-----------|-------------7---7-|

Refrain
|| Hm A Hm | G D/F# G | A G A | Hm A || 2x

Refrain 2
| Hm A Hm | G D/F# G | A G A | Hm A |
|| Hm A Hm | G D/F# G | A G A | Hm   H |

| H | E F# | H | E F# |
| G | A |

(During SOLO:) Hm G A E
Bm G A G A

E|--------------------7---|-------------------------------------|
B|----10------7-10-7------|-10/---10-7--------------------------|
G|----11--9/--------------|-------------11-9--7--6--7--6--------|
D|------------------------|-------------------------------9--7--|
A|------------------------|-------------------------------------|
E|------------------------|-------------------------------------|

E|------------------|-----------------------------------------|
B|------10/---10-7--|-10/-7-----------------------------------|
G|------------------|---------9/-9-7-------------------7------|
D|------------------|----------------9--7------7-7--9-----9-7-|
A|------------------|-----------------------------------------|
E|------------------|-----------------------------------------|

E|---------10/-10---7-----7-------7-----|----------------------------------------------|
B|---------------------10--10-7-10---10-|-10/--10-7-----------------------------17-15--|
G|--------------------------------------|-----------9/-9--7---7(SL)2------14-16------14|
D|-9----7-------------------------------|-----------------------------16---------------|
A|--------------------------------------|----------------------------------------------|
E|--------------------------------------|----------------------------------------------|

E|-17-14----17-14----------------------|--------------------|
B|-------14-------14-17/----17--17/----|-17/-------15-------|
G|-------------------------------------|--------------16----|
D|-------------------------------------|--------------------|
A|-------------------------------------|--------------------|
E|-------------------------------------|--------------------|

Part II
E|-------------------------------------------------|------------------|
B|-------------------------------------------------|------------------|
G|-------------------------------------------------|------------------|
D|-------------5--4--2-----------------5--4--2-----|------------------|
A|-2--2--5--2-----------5--2--2--5--2-----------5--|-------------0-1--|
E|-------------------------------------------------|-3--2--3---4------|


E|-------------------------------------------------|------------|
B|-------------------------------------------------|------------|
G|-------------------------------------------------|------------|
D|-------------5--4--2-----------------5--4--2-----|------------|
A|-2--2--5--2-----------5--2--2--5--2-----------5--|------------|
E|-------------------------------------------------|-3---2---3--|
----------
Solo 3
E|--------------------------------------------|------------------------------------------------------------------------------|--------|
B|--15-14-------15-14-------15-14-------15-14-|-------15-14-------15-14-------15-14-------15-14-------15-14-------15-14------|-17-----|
G|--------16-14-------16-14-------16-14-------|-16-14-------16-14-------16-14-------16-14-------16-14-------16-14-------16-14|--------|
D|--------------------------------------------|------------------------------------------------------------------------------|--------|
A|--------------------------------------------|------------------------------------------------------------------------------|--------|
E|--------------------------------------------|------------------------------------------------------------------------------|--------|


E|-------------------------------|-------------------------------------------------------|
B|-------------------------------|-------------------------------------------------------|
G|-9---9--7----------------------|-------------------------------7--9--9--9--7--9--7-----|
D|-----------9---9---9-----7-----|-------------------7-----7--9-----------------------9--|
A|----------------------------9--|-7-----7--9--7--9-----9--------------------------------|
E|-------------------------------|----10-------------------------------------------------|


E|--------|----------------2-----------------|-------------------------------------------------|
B|--------|-14---14---14------6--5--3--------|-3--2--------3--2--------3--2--------3--2--------|
G|--------|----------------------------4--2--|-------4--2--------4--2--------4--2--------4--2--|
D|-9------|----------------------------------|-------------------------------------------------|
A|--------|----------------------------------|-------------------------------------------------|
E|--------|----------------------------------|-------------------------------------------------|


E|---------------------------------|-------------------------------------------------|
B|-5----5----5---5--3--5--3--2--3--|-2--0--------------------------------------------|
G|---------------------------------|-------2--4--2-----2-----------------------------|
D|---------------------------------|----------------4-----4--2--0--2--0--2--0--------|
A|---------------------------------|-------------------------------------------2--2--|
E|---------------------------------|-------------------------------------------------|


E|----------10-10----|-10----------10--10-12-10-------------|-12---12-12--12--12--12--12---12-|
B|-------------------|--------------------------12--12--12--|---------------------------------|
G|-------------------|--------------------------------------|---------------------------------|
D|-------------------|--------------------------------------|---------------------------------|
A|-2-----------------|--------------------------------------|---------------------------------|
E|-------------------|--------------------------------------|---------------------------------|


E|-10--------------------|------10----10--------10----10------|------10----10----10--------12----12----12-|
B|----12---12--------14--|-14------14----14--14----14----14---|-14------14----14----15-15-----15----15----|
G|-----------------------|------------------------------------|-------------------------------------------|
D|-----------------------|------------------------------------|-------------------------------------------|
A|-----------------------|------------------------------------|-------------------------------------------|
E|-----------------------|------------------------------------|-------------------------------------------|


E|-------------------------------------------------|-15---14---15---14---|-15-----|
B|-17-17-15-14-15-14-------------------------------|---------------------|--------|
G|-------------------16-14-16-14----14-------------|---------------------|--------|
D|-------------------------------16----16-14-12----|---------------------|--------|
A|----------------------------------------------14-|---------------------|--------|
E|-------------------------------------------------|---------------------|--------|

Musik Gruppe: 

Interpret: 

Queen