I See Fire

Printer Friendly, PDF & Email

Interpret

Ed Sheeran

Akkorde

Capo on 6th fret

INTRO:

e|---------------------x--|--------x---------x--|
B|-----------------0h1-x--|-----3--3---------0--|
G|--2h4p2p0------0-0---x--|-0h2----2--0------0--|
D|-----------0h2---0h2-x--|-0------0--2------x--|
A|-----------------3---x--|--------x--2------x--|
E|--0------------------x--|--------x--0----0-x--|

Strophe
| Em G | D C | Em G | D Am7 |
| Em G | D C | Am7 G/H | C |

Stophe 2&3 + | Am7 G/H | C |

Turnaround = Intro 1x

Chorus
(jeweils hohes G)
|| Em7 Cadd9 | Dsus4 Em7 || 3x
| Em7 Cadd9 | Dsus4 Am7 | Am7 | Am7 |

Bridge
(jeweils 1/4 gerade)
|| Am7 Em | G D || 3x
| Am7 | Am G/H | C | D |


VERSE:
   Em    G     D       C         Em    G     D       Am7      
e|-----------------------------|---------------------------|
B|----0--------3---------------|----0--------3-------1-----|
G|-0--x-----x--0h2--x--0----x--|-0--x-----x--0h2--x--0--x--|
D|-2--x--0--x--0----x--0h2--x--|-2--x--0--x--0----x--2--x--|
A|-2--x--2--x-------x--3----x--|-2--x--2--x-------x--0--x--|
E|-0--x--3--x-------x-------x--|-0--x--3--x-------x-----x--|

   Em    G     D       C         Am7   G/H    C  
e|-----------------------------|---------------------------|
B|----0--------3---------------|-1--0--3-------------------|
G|-0--x-----x--0h2--x--0----x--|-0--x--0--x---0------------|
D|-2--x--0--x--0----x--0h2--x--|-2--x--0--x---2------------|
A|-2--x--2--x-------x--3----x--|-0--x--2--x---3------------|
E|-0--x--3--x-------x-------x--|----x-----x----------------|
                                [sometimes played twice:

TURNAROUND:

e|---------------------x--|--------x---------x--|
B|---------------------x--|--------3---------x--|
G|--2h4p2p0------0-0---x--|-0h2----2--0------x--|
D|-----------0h2---0h2-x--|-0------0--2------x--|
A|-----------------3---x--|--------x--2------x--|
E|--0------------------x--|--------x--0------x--|

CHORUS:

   Em7    Cadd9      Dsus4    Em7
e|---3----------3--|-3---3--------3--|
B|---3----------3--|-3---3--------3--|
G|-0-0----0---0-0--|-0h2-2----0-0-0--| x3
D|-2------0h2-2----|-0---0----2-2----|
A|-2------3---3----|----------2-2----|
E|-0---------------|----------0-0----|

  Em7    Cadd9      Dsus4     Am7
e|---3----------3--|-3---3-------| -->"...and I hope that
B|---3----------3--|-3---3-------|     you remember me"
G|-0-0----0---0-0--|-0h2-2----0--|
D|-2------0h2-2----|-0---0----2--|
A|-2------3---3----|----------0--|
E|-0---------------|-------------|

BRIDGE:

   Am7  Em      G    D
e|-0-0--0-0--|--3-3--2-2--|
B|-1-1--0-0--|--3-3--3-3--|
G|-0-0--0-0--|--0-0--2-2--| x3
D|-2-2--2-2--|--0-0--0-0--|
A|-0-0--2-2--|--2-2-------|
E|------0-0--|--3-3-------|

   Am7          G/H  C        D
e|----------------------------2-2-2-2--|
B|-1-1-1-1--1-1-3-3--1-1-1-1--3-3-3-3--|
G|-0-0-0-0--0-0-0-0--0-0-0-0--2-2-2-2--|
D|-2-2-2-2--2-2-0-0--2-2-2-2--0-0-0-0--|
A|-0-0-0-0--0-0-2-2--3-3-3-3-----------|
E|-------------------------------------|


Intro
Verse

Turnaround
Verse (last part is played twice)
Chorus

Intro

Verse (last part is played twice)
Chorus (instead of Dsus4 he plays a normal D chord)

Bridge
Chorus
Chorus

Musik Gruppe