Hey there Delilah

Printer Friendly, PDF & Email

Akkorde

Intro & Strophe

D F#m D F#m
e-------------------------------------------------------------------|
B---3---3---3---3---2---2---2---2---3---3---3---3---2---2---2-------|
G---2---2---2---2---2---2---2---2---2---2---2---2---2---2---2-------|
D-0---0---0---0---4---4---4---4---0---0---0---0---4---4---4---4-----|
A-------------------------------------------------------------------|
E-------------------------------------------------------------------|

letzte Strophe 3x |
Hm G A |Bm A

e---------------------------------|----------------------------------|
B---3---3---3-------3---3---2---2-|--3---3---3---3---2---2---5---5---|
G---4---4---4-------4---4---2---2-|--4---4---4---4---2---2---2---2---|
D---------------------------------|----------------------------------|
A-2---2---2---0-----------0---0---|2---2---2---2---0---0---0---0-----|
E-----------------3---3-----------|----------------------------------|

Chorus
D Hm D Hm
e-------------------------------------------------------------------|
B---3---3---3-------3---3---3---3---3---3---3--------3---3---3---3--|
G---2---2---2-------4---4---4---4---2---2---2--------4---4---4---4--|
D-0---0---0-----------------------0---0---0-------------------------|
A-------------0---2---2---2---4----------------0---2---2---2---4----|
E-------------------------------------------------------------------|

Bridge
G A D Hm wiederh.
e||-------------------------------------------------------------------||
B||---3---3---3---3---2---2---2---2---3---3---3-------3---3---3-------||
G||---4---4---4---4---2---2---2---2---2---2---2-------4---4---4-------||
D||---------------------------------0---0---0-------------------------||
A||-----------------0---0---0---0---------------0---2---2---2---0-----||
E||-3---3---3---3-----------------------------------------------------||

G A Hm
e-------------------------------------------------------------------|
B---3---3---3---3---2---2---2-------3---3---3---3---3---3---3---3---|
G---4---4---4---4---2---2---2-------4---4---4---4---4---4---4---4---|
D-------------------------------------------------------------------|
A-----------------0---0---0---0---2---2---2---2---2---2---2---2-----|
E-3---3---3---3-----------------------------------------------------|

A
e-----------------------------------|
B---2---2---2---2---5---5---5---5---|
G---2---2---2---2---2---2---2---2---|
D-----------------------------------|
A-0---0---0---0---0---0---0---0-----|
E-----------------------------------|

Musik Gruppe