Here I go Again - Whitesnake

Printer Friendly, PDF & Email

Akkorde

Intro : | C D |

Refrain :
|| G | C | D | C D ||3x
Ende 4. Durchgang | C H |
|| Am | D ||

Strophe :
|| G | D | C | C ||
Ende 4. Durchgang | C H |
|| Am | D ||

Bridge :
|| Em G | Am || C D

Solo :
 

                         Sl      B                       Sl
|-----------------------------------------------------------|
|----------------8/(10)-8-7-8--------5-8-8/10--10-8---------|
|-4-5-7-----------------------5----7----------------7-------|
|-------(5)/7-----------------------------------------------|
|-----------------------------------------------------------|
|-----------------------------------------------------------|

   Mute    B       B             B       B
|------------------------------17/(19)-17/19-15-17-------/-20|
|--------8/(10)--8/(10)--8-7-----------------------15---/----|
|--------------------------------------------------------/---|
|-----9-------------------------------------------------/----|
|---7--------------------------------------------------/-----|
|-5---------------------------------------------------/------|

Musik Gruppe