Heavy Cross - Gossip

DruckversionDruckversion

Akkorde: 

Strophe

Intro / verse 2:

 e|------------------------------------------------|------------------------------------------------|
 B|------------------------------------------------|------------------------------------------------|
 G|------------------------------------------------|------------------------------------------------|
 D|------14-14-------14-14-------14-14-------14-14-|-------14-14-------14-14-------17-17-------17-17|
 A|------------------------------------------------|------------------------------------------------|
 E|10-12-------12-12-------10-12-------12-12-------|-10-12-------12-12-------12-14-------12-12------|

 e|------------------------------------------------|------------------------------------------------|
 B|------------------------------------------------|------------------------------------------------|
 G|------------------------------------------------|------------------------------------------------|
 D|------12-12-------12-12-------12-12-------12-12-|-------12-12-------12-12-------10-10-----9-9----|
 A|------------------------------------------------|------------------------------------------------|
 E|-8-10-------10-10--------8-10-------10-10-------|--8-10-------10-10--------9--9-------7-7--------|

Refrain
|| Em | D ||

e|-----------------------------------------|
 B|-12-12-12-12-x-x-x-x-12-12-12-12-x-x-x-x-|
 G|-12-12-12-12-x-x-x-x-12-12-12-12-x-x-x-x-|
 D|-----------------------------------------|
 A|-----------------------------------------|
 E|-----------------------------------------|

 e|-----------------------------------------|
 B|-17-17-17-17-x-x-x-x-17-17-x-x-17-17-x-x-|
 G|-16-16-16-16-x-x-x-x-16-16-x-x-16-16-x-x-|
 D|-14-14-14-14-x-x-x-x-14-14-x-x-14-14-x-x-|
 A|-----------------------------------------|
 E|-----------------------------------------|

 e|-----------10-------------------|
 B|-----------10-------------------|
 G|-----------10-------------------|
 D|--------------------------------|
 A|--------------------------------|
 E|-10---10-------10---x-5-5-5-5-5-|

Break

 e|-------12-|-------10-|
 B|----12----|----10----|
 G|-12-------|-10-------|
 D|----------|----------|
 A|----------|----------|
 E|----------|----------|

Musik Gruppe: