Hammer to fall

Printer Friendly, PDF & Email

Interpret

Queen

Noten Stimmung

D#

Akkorde

  A(1) A(2) D(1) D(2)  D/F#
|-----------2------------3--------------------|
|-2----5----3----3-------3--------------------|
|-2----6----2----2-------2--------------------|
|-2----7----0----4-------x--------------------|
|-0----0---------0-------2--------------------|
|---------------------------------------------|
 
Intro & Strophe
             A            D      A
||-----------------|-------------------|--------------------|
||-----------------|-2----3------2-2-2-|-2----3------2-2-2--|
||-----------2-2-2-|-2----2------2-2-2-|-2----2------2-2-2--|
||---------x-2-2-2-|-2----4------2-2-2-|-2----4------2-2-2--|
||---------x-0-0-0-|-0----0------0-0-0-|-0----0------0-0-0--|
||-----------------|-------------------|--------------------|
 
  A    D      A       E    D
|-------------------|-------------------||
|-2----3------2-2-2-|-5\---2------2-2-2-||
|-2----2------2-2-2-|-4\---2------2-2-2-||
|-2----4------2-2-2-|-6\---2------2-2-2-||
|-0----0------0-0-0-|-0\---0------0-0-0-||
|-------------------|-------------------||
 
Refrain
  A      E    D     A           D A
 -----------------|--------------------
 -5-5-5--5-5--3-3-|-2--------2--3--2---
 -6-6-6--4-4--2-3-|-2--------2--2--2---
 -7-7-7--6-6--4-4-|-2--------2--4--2---
 -----------------|-0-0-3b-0-0-----0---
 -----------------|--------------------
 
  A      E    D     A                  D     A
 -----------------|----------------------------
 -5-5-5--5-5--3-5-|-2------------------3-2---2-
 -6-6-6--4-4--2-4-|-2----------------------2-2-
 -7-7-7--6-6--4-6-|-2---------4-2------------2-
 -----------------|-0-0-3b4-0-----4-0--------0-
 -----------------|----------------------------
 
Nach 2. Refrain
 
1x Strophen Thema

Bridge
| E | F#m | G#m | A(2) | D(1) A(1) | G  D/F# |
| E | F#m | G#m | A
(2) | D E |
| E | E/G# | A | E |

G---------------9------
D-----------7---9------
A-----7-----7---7------
E-----4-----5----------

kurze Version
| D | C# | H | H |

G---7--------------
D---7--7----9------
A---9--7----9------
E--10--9----7------

2. Solo
e|------------------------------------|
B|------------------------------------|
G|------------------------------------|
D|-----0-2-0----0-2-3---2-3-2-0---2-3-|
A|--3--------3------------------------|
E|------------------------------------|

e|--------------------------------------------------------------------------------------------|
B|--------------------------------------------------------------------------------------------|
G|-0-2-0-2-0---2-3---2-3-0---2-3-5-7---5-7-5---5-7-8---7-8-7----7-8---10-9-10-9---10-9-7------|
D|-----------3-------------------------------8---------------10--------------------------10-12|
A|--------------------------------------------------------------------------------------------|
E|--------------------------------------------------------------------------------------------|

e|-----------------------------------------------------------------------------------------------------------|
B|-----------------------------------13-15-15b--15-13-15-13-11-13-11-13---10-11-10-8-10-8-6-8---6-8-5-6-5--5-|
G|9-10-12-14----12-14-12---12-14-15----------------------------------------------------------------------7---|
D|-----------15----------------------------------------------------------------------------------------------|
A|-----------------------------------------------------------------------------------------------------------|
E|-----------------------------------------------------------------------------------------------------------|


3. Solo
|------------------|-----------------------------------------------------|
|---------------10-|-12b14==(12)r(12)p10-12-12b14==(12)-(12)r==12S17b19==|
|-6----6-7-9-------|-----------------------------------------------------|
|------------------|-----------------------------------------------------|
|------------------|-----------------------------------------------------|
|------------------|-----------------------------------------------------|

|---------------------------------------------------|---------------------------16b18===|
|-(17)--(17)-17-15-14-15-17-------------------------|-----------------------------------|
|---------------------------14-16b18==(16)r(16)b18==|=(16)r(16)p14----14-(14)-----------|
|---------------------------------------------------|--------------16-------------------|
|---------------------------------------------------|-----------------------------------|
|---------------------------------------------------|-----------------------------------|

|-(16)-(16)-16h17p16p14-16-(16)-16p14----------------|
|-------------------------------------17-17b19==(17)r|
|----------------------------------------------------|
|----------------------------------------------------|
|----------------------------------------------------|
|----------------------------------------------------|

|-----------------------------------------|
|-(17)p15-14-15-17------------------------|
|------------------14-16b18==(16)-(16)----|
|-----------------------------------------|
|-----------------------------------------|
|-----------------------------------------|

|------------------------------------|----------------------|--------------|
|-----17--15-14----------------------|----------------------|--------------|
|---x-----------16-14h16p14S13-------|----------------------|-7p6-2-2-2----|
|-x----------------------------16-14S|=12p11----------------|-7---2-2-2----|
|------------------------------------|-------12-12-12--12\--|-0---0-0-0----|
|------------------------------------|----------------------|--------------|

|-------------|
|-------------|
|-7p6---7p6---|
|-7---7-7---7-|
|-0-----0-----|
|-------------|

--> D

Liedtext

Yeah
 Here we stand or here we fall
 History won't care at all
 Make the bed, light the light
 Lady mercy won't be home tonight
 
Yeah, you don't waste no time at all
 Don't hear the bell but you answer the call
 It comes to you as to us all
 Hey, we're just waiting
 For the hammer to fall - yeah
 
Oh every night, and every day
 A little piece of you is falling away
 But lift your face, the western way, baby
 Build your muscles as your body decays
 
Yeah, toe your line and play their game
 Yeah, let the anaesthetic cover it all
 Till one day they call your name
 You know it's time for the hammer to fall - yeah
 
Rich or poor or famous for
 Your truth it's all the same - oh no - oh no
 Oh lock your door but rain is pouring
 Through your window pane - oh no - yeah
 Baby now your struggle's all vain
 
Oooh oooh oooh oooh oooh
 
For we who grew up tall and proud
 In the shadow of the mushroom cloud
 Convinced our voices can't be heard
 We just wanna scream it louder and louder and louder
 
What the hell we fighting for ?
 Ah, just surrender and it won't hurt at all
 You just got time to say your prayers
 Eh, while you're waiting for the hammer to hammer to fall
 Hey, yes, it's starting to fall eh, hammer, you know
 Yeah, hammer to fall, wooh, ah, hey, eh woowoo, ha eh hammer
 Waiting for the hammer to fall baby
 Yeah yeah while you're waiting for the hammer to fall
 Give it to me one more time

Musik Gruppe