Fight For Your Right To Party

Printer Friendly, PDF & Email

Interpret

Beastie Boys

Akkorde

Intro
| F# |

Main Riff
|| F# A H | F# F# A H  ||
| F# H   C# E C#  F# |

Strophe
| F# | F# | F# A H | F# F# A H  |

Refrain
| nc H | nc H | --> Main Riff
        1  2          1 2 3

Bridge

   C#
e|-----------------------|
B|-----------------------|
G|-----------------------|
D|-6-6-6-6-6-6-6-6-------|
A|-4-4-4-4-4-4-4-4---7/--|
E|-----------------------|

----------------------------------|-----------------------------|-------|
--17/(19)-\17-----17/(19)-\17-----|----16-16--------------------|-------|
----------------------------------|-14-16-16-16/(18)----16/(18)-|-------|
----------------------------------|-----------------------------|-------|
----------------------------------|-----------------------------|-------|
----------------------------------|-----------------------------|-------|

------------------------------|----------------------------|-------|
------------------------------|----------------------------|-------|
--------------------------14--|-16-14-16/(18)--16/(18)-\14-|--14~--|
-------------14--15--16-------|----------------------------|-------|
-14h15h16---------------------|----------------------------|-------|
------------------------------|----------------------------|-------|

-17h16h14-----------------------|----------------------------|
-------------17----14---17------|----14----17/(19)-\17-------|
--------------------------------|----------------------------|
--------------------------------|----------------------------|
--------------------------------|----------------------------|
--------------------------------|----------------------------|

 

Musik Gruppe