Ever Rose has a Thorn - Poison

Printer Friendly, PDF & Email

Akkorde

    G    Cadd9  D    Em    C
Eb -3----3------2----0-----x--|
Bb -3----3------3----0-----1--|
Gb -0----0------2----0-----0--|
Db -0----2------0----2-----2--|
Ab -2----3------x----2-----3--|
Eb -3----x------x----0-----0--|

Intro
G, Cadd9

Strophe
| G | G | Cadd9 | Cadd9 |
| G | G | Cadd9 | Cadd9 |
| G | Cadd9 | G | Cadd9 |
| D | D | C | C |

Refrain
| G | G | Cadd9 | Cadd9 |
| G | G | Cadd9 | Cadd9 |
| G | D | C | C |
| G | G | C | C |


Bridge

| Em | D | C | G F# |
| Em | D | C | G |

Solo 1 (after 1st chorus)
e ----------------------------------------------------15br~~~--------
B ----------15br~~~--------------------13-12-----------------12br~~~-
G –14brb~~-----------------12-14-12----------14-brbr-----------------
D -----------------12--14-----------14-------------------------------
A -------------------------------------------------------------------
E -------------------------------------------------------------------

Solo 2 (über den Refrain)
e -----------------------------------------------------
B --------------13--12--13--12--13------15-------------
G --------16~~---------------------14b-----14r—-12~~~\-
D –14b-------------------------------------------------
A -----------------------------------------------------
E -----------------------------------------------------

e ---------------------------------------------------------------
B –15b--15--13-12----12------------------------------------------
G ----------------14----14-12-14-12-11-12-11--------11~-12~------
D -------------------------------------------12/14~~--------14~~-
A ---------------------------------------------------------------
E ---------------------------------------------------------------

e -----15-----15-----15~~--------------
B –15b----15b----15b-------------------
G ------------------------11~-12~------
D --------------------------------14~~-
A -------------------------------------
E -------------------------------------

e -15—h19p15h17p15---h19p15h17p15---15h17p15-(15)-
B ----------------h17------------h17--------------
G ------------------------------------------------
D ------------------------------------------------
A ------------------------------------------------
E ------------------------------------------------

Musik Gruppe