Ein Kompliment

Printer Friendly, PDF & Email

Interpret

Sportfreunde Stiller

Akkorde

  Intro (clean guitar - play the chords in little variations)
    D                              Am/A
E:|-2-2-2-2-2-2-2-2-2-2-2-2-2-2-2-2-0-0-0-0-0-0-0-0-0-0-0-0-0-0-0-0--|
B:|-3-3-3-3-3-3-3-3-3-3-3-3-3-3-3-3-1-1-1-1-1-1-0-1-1-1-1-0-1-1-1-1--|
G:|-2-2-2-2-2-2-2-2-2-2-2-2-2-2-2-2-2-2-2-2-2-2-2-2-2-2-2-2-2-2-2-2--|
D:|-0-0-0-0-0-0-0-0-0-0-0-0-0-0-0-0-2-2-2-2-2-2-2-2-2-2-2-2-2-2-2-2--|
A:|---------------------------------0-0-0-0-0-0-0-0-0-0-0-0-0-0-0-0--|
E:|------------------------------------------------------------------|

    C                      Cadd9     Em   
E:|-0-0-0-0-0-0-0-0-0-0-0-0-0-0-0-0-------|
B:|-1-1-1-1-1-1-1-1-1-1-1-1-3-3-3-3--0----|
G:|-0-0-0-0-0-0-0-0-0-0-0-0-0-0-0-0--0----|
D:|-2-2-2-2-2-2-2-2-2-2-2-2-2-2-2-2--2----|
A:|-3-3-3-3-3-3-3-3-3-3-3-3-3-3-3-3--2----|
E:|----------------------------------0----|

Solo
           3x
E:||-----------------||--------------------|
B:||-12--10------10--||------10--12--------|
G:||---------12------||--12-----------9----|
D:||-----------------||--------------------|
A:||-----------------||--------------------|
E:||-----------------||--------------------|

Strophe & Refrain
| D | Am | C | Em |

 

Musik Gruppe