Easy

Printer Friendly, PDF & Email

Interpret

Faith no more

Akkorde

Strophe :       
||: G# Cm7 | A#m7 D# :|| 

Refrain :
||: G# Cm7 | A#m7 D# :|| 3x
| F# | C# | C#/D# | G# |
 
Bridge :

||: F#maj7| D#m7 :||3x
| H  F# | H C# |
 
-------------------------|----------------------|------
-------------------------|----------------------|------
------------13----(13)/--|----------------------|------
-------------------------|----------------------|------
--13br-11----------------|--13br--11--11-\------|------
-------------------------|----------------------|------
 
-------------12br------------------------------------------------
-------------------11br---9--------------------------------------
---------------------------11---10---8-----10---8----------------
---------------------------------------10----------10----^^^^^---
--13br-11--------------------------------------------------------
-----------------------------------------------------------------
 
-------------------------|--------------------------
-------------------------|--------------------------
-----------13------(13)/-|--------------------------
-------------------------|--------------------------
-13br-11-----------------|---13br-11-11-\-----------
-------------------------|--------------------------
 
-----------12br--11--12br-----------11--8--8------------|
---------------------------11b(12)------------11--9-----|
-----------------------------------------------------10-|
--------------------------------------------------------|
13br--11------------------------------------------------|
--------------------------------------------------------|
 
-------------12b(13)--11-----(11)\------------
----------------------------------------------
10--10----------------------------------------
--------13------------------------------------
----------------------------------------------
----------------------------------------------

Musik Gruppe