Don't you - Simple Minds

Printer Friendly, PDF & Email

Akkorde

Intro :
 

|-------|--------|-------|
|-------|----8---|-------|
|-7--9--|-7--7---|-5--7--|
|-7--9--|-7------|-5--7--|
|-------|--------|-------|
|-------|--------|-------|

Strophe & Refrain :

| E | D | A | D |
Keyboard  || E | F#m |   (Einzeltöne)
 

|------------------------------|
|------------------------------|
|-7-7-7-7-7-7-7-7-6-7-(9)-7----|
|------------------------------|
|------------------------------|
|------------------------------|

Bridge :

|| C | G | D | A ||

Musik Gruppe