Der goldene Reiter

Interpret

Joachim Witt

Akkorde

Intro

Gm

-> You've Got Another Thing Comin'

e|---|---|---|-----------------|-----------------
B|---|---|---|-----------------|-----------------
G|-5-|---|---|-----------------|---------------5-
D|-3-|-5-|---|-----------------|---3-----3---5-3-
A|---|-3-|-5-|-----------------|---1-----1---3---
E|---|---|-3-|-3-3-3-3-3-3-3-3-|-3---1-3---------

 

Strophe

|| Gm | B | F | F F E F ||

 

Refrain

| Gm |  F |

   Gm                F
||----------------||-------------||
||---------10-----||-------------||
||------------12--||----10-9-----||
||-----12---------||---------10--||
||-10-------------||-8-----------||
||----------------||-------------||

Musik Gruppe